Oops, an error
Loading. Please wait.

Deep End Tab

version 2
version 2

Whole song

Interactive

7,836 views 3 this week
2 commentsread comments
1 2 3 4 5
accurate
x 8
add to favorites
launch autoscroll
font size
0
reset
how to read this tab
guitar tuner
Tab Pro tools
  • play this tab
  • loop segment
  • change instrument
  • show fretboard
  • metronome
×
Best way to learn
"Deep End"
Autoscroll
slow
fast
+/-
esc
set tempo
stop
Contributor
Difficulty
Tuning
novice
D A D G B E
Title : The Deep End
Artist: Crossfade
Album : Crossfade (self-titled)

Tuning: DADGBe (low to high)

Note: Ed Sloan uses a 7-string, but for this song the 7th string is untouched.

Intro (either finger-picked or hybrid picking, not sure)
(You should use the pickups furthest from the neck. Also use heavy wah.)

e| -------------------------------------------------- |
B| -------------------------------------------------- |
G| -------------------------------------------------- |
D| -------4-4-----4---4---------4-5-4----4-5-4----4-- |
A| --2-2----------------------------------------0---- |
D| ------------2----2---2---2/5--------0------------- |

							x5

e| -------------------------------------------------- |
B| -------------------------------------------------- |
G| -------------------------------------------------- |
D| -------4-4-----4---4---------4-5-4----4-5-4------- |
A| --2-2----------------------------------------0-7p6 |
D| ------------2----2---2---/5---------0------------- |


Chorus

e| -------------------------------------------------- |
B| -------------------------------------------------- |
G| --4-------------------4--------------------------- |
D| --4---5---3-3---1-1---4--2-2--5-5-5--1-1-1-------- | x2
A| --2---5---3-3---1-1---2--2-2--5-5-5--1-1-1-------- |
D| ------5---3-3---1-1------2-2--5-5-5--1-1-1-------- |


Interlude (second time don't play the first note)

e| -----5-5-5-7-------------------------------------- |
B| -------------7---7---7-8-7--------------------7--- |
G| --4------------4---4----------7-9-7---7-9-6-6----- |
D| ----------------------------9-------9-----------9- | x2
A| -------------------------------------------------- |
D| -------------------------------------------------- |


Bass Riff

e| -------------------------------------------------- |
B| -------------------------------------------------- |
G| -------------------------------------------------- |
D| --4------4------4------4-------------------------- |
A| ----2--2---2--2---2--2---2---2-------------------- |
D| -------------------------------2-2-------5-5------ |

e| -------------------------------------------------- |
B| -------------------------------------------------- |
G| -------------------------------------------------- |
D| --4------4------4------4-----------4-5-4-----4-5-4 |
A| ----2--2---2--2---2--2---2---2-------------------- |
D| -------------------------------2-2-------5-5------ |


Guitar Riff

e| -------------------------------------------------- |
B| -------------------------------------------------- |
G| -------------------------------------------------- |
D| --4------4------4------4----------4-5-4-----4-5-4- |
A| ----2--2---2--2---2--2---2--2--------------------- |
D| ------------------------------2-2-------5-5------- |

e| -------------------------------------------------- |
B| -------------------------------------------------- |
G| -------------------------------------------------- |
D| --4------4------4------4----------4-5-4-----4-7-4- |
A| ----2--2---2--2---2--2---2--2--------------------- |
D| ------------------------------2-2-------5-5------- |

e| -------------------------------------------------- |
B| -------------------------------------------------- |
G| ----------------------------------------------4--- |
D| --4------4------4------4----------4-5-4-----7---4- |
A| ----2--2---2--2---2--2---2--2--------------------- |
D| ------------------------------2-2-------5-5------- |

e| -------------------------------------------------- |
B| -------------------------------------------------- |
G| -------------------------------------------------- |
D| --4------4------4------4-------5-5-5-5-5-5-5-5---- |
A| ----2--2---2--2---2--2---2--2--5-5-5-5-5-5-5-5---- |
D| -------------------------------5-5-5-5-5-5-5-5---- |

e| -------------------------------------------------- |
B| -------------------------------------------------- |
G| -------------------------------------------------- |
D| ---2-2---2-2---2---2------------------------------ |
A| ---2-2---2-2---2---2------------------------------ |
D| ---2-2---2-2---2---2------------------------------ |
						^
Breaks into chorus again here

Song Layout:

Intro					0:00 - 0:56
Chorus					0:56 - 1:19
Interlude (Intro backing)	1:19 - 1:30
Intro					1:30 - 1:53
Chorus					1:53 - 2:15
Bass Riff					2:15 - 2:26
Guitar Riff				2:26 - 2:58
Chorus					2:58 - 3:23


Props go to Audioslave88 for giving me the basic gist of this song. I took his version,
it out of the unnecessary drop C, corrected it, and simplified it.

WanderLust
comments
print report bad tab
2 comments total.
0 reply
V1nt42 wrote on April 17 2011, 10:45 am

chorus
e| -------------------------------------------------- |
B| -------------------------------------------------- |
G| --4-------------------4--------------------------- |
D| --4---5---2-2---0-0---4--2-2--5-5-5--0-0-0-------- | x2
A| --2---5---2-2---0-0---2--2-2--5-5-5--0-0-0-------- |
D| ------5---2-2---0-0------2-2--5-5-5--0-0-0-------- |

I think it sounds more correct

0 reply
V1nt42 wrote on April 17 2011, 12:57 pm

..or not
i guess i'm wrong

chorus
e| -------------------------------------------------- |
B| -------------------------------------------------- |
G| --4--------------------4-------------------------- |
D| --4---5---0-0---10-10--4--2-2--5-5-5--10-10-10---- | x2
A| --2---5---0-0---10-10--2--2-2--5-5-5--10-10-10---- |
D| ------5---0-0---10-10-----2-2--5-5-5--10-10-10---- |

maybe like this,
but i think it's better to play this song in dropC.
With 7string guitar even better.

I want to post or [tab]
guest
You may want to rate the tab now too:
select rating
Please do not post tabs as comments. Select "correction" instead!