Oops, an error
Loading. Please wait.

Deep End Tab

version 3
version 3

Whole song

Interactive

2,481 views 1 this week
2 commentsread comments
1 2 3 4 5
x 5
add to favorites
launch autoscroll
font size
0
reset
how to read this tab
guitar tuner
Autoscroll
slow
fast
+/-
esc
set tempo
stop
Help us to improve Ultimate-Guitar.com Take our survey!
×
Author
Difficulty
Tuning
novice
D A D G B E
Song: The Deep End
Artist: Crossfade
Album: Crossfade
Tuning: Drop D (DADGBe)
Tabbed by: Cory Karpinski

This is easily one of Crossfade's greatest songs, it's my personal favorite, and it's 
easy play. I cannot garuntee this is 100% correct, but I can garuntee that is is very 
to the real thing, and this is the way I play it.

Also, I Crossfade usually uses a 7-String Guitar, but in this song it is not used.

Intro:

e| -------------------------------------------------- |
B| -------------------------------------------------- |
G| -------------------------------------------------- |
D| -------4-4-----4---4---------4-5-4----4-5-4----4-- | x12
A| --2-2----------------------------------------0---- |
D| ------------2----2---2---2/5--------0------------- |

Chorus

e| --------------------------------------------------- |
B| --------------------------------------------------- |
G| --6-xx-2r--2--------------6-xx-2r--2--------------- |
D| --6-xx-2r--2--2-xx-0r--0--6-xx-2r--2--5-xx--1-xx--- |
A| --4-xx-0r--0--2-xx-0r--0--4-xx-0r--0--5-xx--1-xx--- |
D| --------------2-xx-0r--0--------------5-xx--1-xx--- |

                       Or

e| --------------------------------------------------- |
B| --------------------------------------------------- |
G| --6-66-2r--2--------------6-66-2r--2--------------- |
D| --6-66-2r--2--2-22-0r--0--6-66-2r--2--5-55--1-11--- |
A| --4-44-0r--0--2-22-0r--0--4-44-0r--0--5-55--1-11--- |
D| --------------2-22-0r--0--------------5-55--1-11--- |

(I usually play the 2nd version of the Chorus with a few extra notes in between, I like 
throw my own little touch into the songs I play)


Interlude (Do not play the 1st note the second time, fade the last note into the repeat:)

e| -----5-5-5-7-------------------------------------- |
B| -------------7---7---7-8-7--------------------7--- |
G| --4------------4---4----------7-9-7---7-9-6-6----- |
D| ----------------------------9-------9-----------9- | x2
A| -------------------------------------------------- |
D| -------------------------------------------------- |

Bass Riff:

G| ------------------------------------------------------------- |
D| -----4-4-----4-4-----4-4-----4-4----------------------------- |
A| --2-------2-------2-------2---------------------------------- |
D| -----------------------------------22-----------55----------- |

G| ------------------------------------------------------------- |
D| -----4-4-----4-4-----4-4-----4-4------4h5p4------4h5p4------- |
A| --2-------2-------2-------2---------------------------------- |
D| -----------------------------------22-----------55----------- |

Guitar Riff:

e| ------------------------------------------------------------- |
B| ------------------------------------------------------------- |
G| ------------------------------------------------------------- |
D| -----4-4-----4-4-----4-4-----4-4---22---4h5p4---55---4h5p4--- |
A| --2-------2-------2-------2--------22-----------55----------- |
D| -----------------------------------22-----------55----------- |

e| ------------------------------------------------------------- |
B| ------------------------------------------------------------- |
G| ------------------------------------------------------------- |
D| -----4-4-----4-4-----4-4-----4-4---22---4h5p4---55---4h7p4--- |
A| --2-------2-------2-------2--------22-----------55----------- |
D| -----------------------------------22-----------55----------- |

e| ------------------------------------------------------------- |
B| ------------------------------------------------------------- |
G| -------------------------------------------------------4----- |
D| -----4-4-----4-4-----4-4-----4-4---22---4h5p4---55---7---4--- |
A| --2-------2-------2-------2--------22-----------55----------- |
D| -----------------------------------22-----------55----------- |

e| ------------------------------------------------------------- |
B| ------------------------------------------------------------- |
G| ------------------------------------------------------------- |
D| -----4-4-----4-4-----4-4-----4-4---5-5-5-5-5-5-5-5-5--------- |
A| --2-------2-------2-------2--------5-5-5-5-5-5-5-5-5--------- |
D| -----------------------------------5-5-5-5-5-5-5-5-5--------- |
                                      ^ ^ ^ ^ ^ ^ ^ ^ ^
(Can be replaced with 3's if you believe it to sound better)

e| -------------------------------------------------- |
B| -------------------------------------------------- |
G| -------------------------------------------------- |
D| ---2-2---2-2---2---2------------------------------ |
A| ---2-2---2-2---2---2------------------------------ |
D| ---2-2---2-2---2---2------------------------------ |

Chorus:

e| --------------------------------------------------- |
B| --------------------------------------------------- |
G| --6-xx-2r--2--------------6-xx-2r--2--------------- |
D| --6-xx-2r--2--2-xx-0r--0--6-xx-2r--2--5-xx--1-xx--- |
A| --4-xx-0r--0--2-xx-0r--0--4-xx-0r--0--5-xx--1-xx--- |
D| --------------2-xx-0r--0--------------5-xx--1-xx--- |

                       Or

e| --------------------------------------------------- |
B| --------------------------------------------------- |
G| --6-66-2r--2--------------6-66-2r--2--------------- |
D| --6-66-2r--2--2-22-0r--0--6-66-2r--2--5-55--1-11--- |
A| --4-44-0r--0--2-22-0r--0--4-44-0r--0--5-55--1-11--- |
D| --------------2-22-0r--0--------------5-55--1-11--- |

That's it. If you have questions please email me at 
Please rate.
Suggest correction
comments
print report bad tab
2 comments total.
0 reply
xVSxNightmare 10 Jun 23, 2007 12:21 AM

Great tab, but not perfect. Sounds close, which is all I'm worried about. 4*

0 reply
Tekken Lord 16 Sep 18, 2007 04:57 PM

The seventh string is actually used in the song iirc.

It doesnt sound perfect, the interlude isnt right, but good tab!

guest
You may want to rate the tab now too:
select rating
Wanna post a correction for this tab? Suggest correction