Oops, an error
Loading. Please wait.

Disco tab

version 3
version 3

Whole song

924 views 3 this week
no commentswrite comment
1 2 3 4 5
1 last vote to show rating
add to favorites
×
Save as Personal and add changes to this tab that will be seen only by you. Learn more ›
×
You can save this tab as Personal to edit and correct it or add notes. All changes will be seen only by you. Learn more »
launch autoscroll
font size
0
reset
how to read this tab
guitar tuner
edit
Autoscroll
slow
fast
+/-
esc
set tempo
stop
"Disco" by Crossfade
TAB by Aaron Prescott

Guitar 1 - Distorted - Drop B (B F# B E G# C#)

Key to Tab Symbols:
/     Slide Up
x     Mute Note
b     Bend number of steps indicated above
r     Release
p     Pull Off
   Natural Harmonic
P.M.  Palm Mute

INTRO:
   Gtr. 1
C#|-----------------|-----------------|-----------------|
G#|-1---------------|-----------------|-----------------|
E |---------2-------|-----------------|-----------------| Those are
B |---------3-------|----------[0]/-/-|-/-121212121212-x| 12's and 13's
F#|-----------------|-1--------[1]/-/-|-/-131313131313-x|
B |-----------------|-0---------------|-----------------|
                                  Slow Gliss

                  .5                 .5                 .5
C#|------------------|------------------|------------------|-----------------|
G#|------------------|------------------|------------------|-----------------|
E |------------------|------------------|------------------|-----------------|
B |------------------|------------------|------------------|---------------3-|
F#|-------5---3------|-------5---3------|-------5---3------|-------5---3---1-|
B |-0-0-0--6-0-5-04br|-0-0-0--6-0-5-04br|-0-0-0--6-0-5-04br|-0-0-0--6-0-5-0--|

VERSE 1:
   "You would give it all up in an instant ..."                                         .5
C#|-----------------|-----------------|-----------------|-----------------|-----------------|
G#|-----------------|-----------------|-----------------|-----------------|-------1---------|
E |-----------------|-----------------|-----------------|-----------------|----2-----2--2br-|
B |-2-22---2-2-2-2--|-2-22---2-2-2-2--|-2-22---2-2-2-2--|-2-22---2-2-2-2--|-3---------------|
F#|-0-00--30-0-0-03-|-0-00--30-0-0-03-|-0-00--30-0-0-03-|-0-00--30-0-0-03-|-----------------|
B |-------3-------3-|-------3-------3-|-------3-------3-|-------3-------3-|-----------------|
                                                                            let ring - - - -|
   "You're back into that smack ..."
C#|-----------------|-----------------|-----------------|-----------------|
G#|-----------------|-----------------|-----------------|-----------------|
E |-----------------|-----------------|-----------------|-----------------|
B |-2-22---2-2-2-2--|-2-22---2-2-2-2--|-2-22---2-2-2-2--|-2-22---2-2-2-2--|
F#|-0-00--30-0-0-03-|-0-00--30-0-0-03-|-0-00--30-0-0-03-|-0-00--30-0-0-03-|
B |-------3-------3-|-------3-------3-|-------3-------3-|-------3-------3-|

PRECHORUS:
   "Does anybody know ..."
C#|---------1p0---0-|-------1---0-----|
G#|-----3-------3---|-----3-------3---|
E |---2---2---------|---2-------------|
B |-3---------------|-3---------------|
F#|-----------------|-----------------|
B |-----------------|-----------------|
    let ring - - - - - - - - - - - - -|

REFRAIN:
   "You're wasted now ..."
C#|---------------------------------|---------------------------------|
G#|---------------------------------|---------------------------------|
E |---------------------------------|---------------------------------|
B |---------------------------------|---------------------------------|
F#|-5-5-5-----5-----3-------1-------|-5-5-5-----5-----3-------1-------|
B |-------0-0---6-0---5-3-3---3-1-1-|-------0-0---6-0---5-3-3---3-1-1-|

C#|---------------------------------|---------------------------------|
G#|---------------------------------|---------------------------------|
E |---------------------------------|---------------------------------|
B |---------------------------------|---------------------------------|
F#|-5-5-5-----5-----3-------1-------|-5-5-5-----5-----3-------1-------|
B |-------0-0---6-0---5-3-3---3-1-1-|-------0-0---6-0---5-3-3---3-1-1-|

C#|---------------------------------|---------------------------------|
G#|---------------------------------|---------------------------------|
E |---------------------------------|---------------------------------|
B |---------------------------------|---------------------------------|
F#|-5-5-5-----5-----3-------1-------|-5-5-5-----5-----3-------1-------|
B |-------0-0---6-0---5-3-3---3-1-1-|-------0-0---6-0---5-3-3---3-1-1-|

C#|---------------------------------|---------------------------------|
G#|---------------------------------|---------------------------------|
E |---------------------------------|---------------------------------|
B |---------------------------------|---------------------------------|
F#|-5-5-5-----5-----3-------1-------|-5-5-5-----5-----3-------1-------|
B |-------0-0---6-0---5-3-3---3-1-1-|-------0-0---6-0---5-3-3---3-1-1-|

INTERLUDE:
                  .5                 .5                 .5
C#|------------------|------------------|------------------|-----------------|
G#|------------------|------------------|------------------|-----------------|
E |------------------|------------------|------------------|-----------------|
B |------------------|------------------|------------------|---------------3-|
F#|-------5---3------|-------5---3------|-------5---3------|-------5---3---1-|
B |-0-0-0--6-0-5-04br|-0-0-0--6-0-5-04br|-0-0-0--6-0-5-04br|-0-0-0--6-0-5-0--|


VERSE 2:
   "You would take us all down with you ..."                                            .5
C#|-----------------|-----------------|-----------------|-----------------|-----------------|
G#|-----------------|-----------------|-----------------|-----------------|-------1---------|
E |-----------------|-----------------|-----------------|-----------------|----2-----2--2br-|
B |-2-22---2-2-2-2--|-2-22---2-2-2-2--|-2-22---2-2-2-2--|-2-22---2-2-2-2--|-3---------------|
F#|-0-00--30-0-0-03-|-0-00--30-0-0-03-|-0-00--30-0-0-03-|-0-00--30-0-0-03-|-----------------|
B |-------3-------3-|-------3-------3-|-------3-------3-|-------3-------3-|-----------------|
                                                                            let ring - - - -|
   "You're one of the people everybody ..."
C#|-----------------|-----------------|-----------------|-----------------|
G#|-----------------|-----------------|-----------------|-----------------|
E |-----------------|-----------------|-----------------|-----------------|
B |-2-22---2-2-2-2--|-2-22---2-2-2-2--|-2-22---2-2-2-2--|-2-22---2-2-2-2--|
F#|-0-00--30-0-0-03-|-0-00--30-0-0-03-|-0-00--30-0-0-03-|-0-00--30-0-0-03-|
B |-------3-------3-|-------3-------3-|-------3-------3-|-------3-------3-|

PRECHORUS:
   "Does anybody know ..."
C#|---------1p0---0-|-------1---0-----|
G#|-----3-------3---|-----3-------3---|
E |---2---2---------|---2-------------|
B |-3---------------|-3---------------|
F#|-----------------|-----------------|
B |-----------------|-----------------|
    let ring - - - - - - - - - - - - -|

REFRAIN:
   "You're wasted now ..."
C#|---------------------------------|---------------------------------|
G#|---------------------------------|---------------------------------|
E |---------------------------------|---------------------------------|
B |---------------------------------|---------------------------------|
F#|-5-5-5-----5-----3-------1-------|-5-5-5-----5-----3-------1-------|
B |-------0-0---6-0---5-3-3---3-1-1-|-------0-0---6-0---5-3-3---3-1-1-|

C#|---------------------------------|---------------------------------|
G#|---------------------------------|---------------------------------|
E |---------------------------------|---------------------------------|
B |---------------------------------|---------------------------------|
F#|-5-5-5-----5-----3-------1-------|-5-5-5-----5-----3-------1-------|
B |-------0-0---6-0---5-3-3---3-1-1-|-------0-0---6-0---5-3-3---3-1-1-|

C#|---------------------------------|---------------------------------|
G#|---------------------------------|---------------------------------|
E |---------------------------------|---------------------------------|
B |---------------------------------|---------------------------------|
F#|-5-5-5-----5-----3-------1-------|-5-5-5-----5-----3-------1-------|
B |-------0-0---6-0---5-3-3---3-1-1-|-------0-0---6-0---5-3-3---3-1-1-|

C#|---------------------------------|
G#|---------------------------------|
E |---------------------------------|
B |---------------------------------|
F#|-5-5-5-----5-----3-------1-------|
B |-------0-0---6-0---5-3-3---3-1-1-|


BRIDGE:

C#|-----------------|-----------------|-----------------|-----------------|
G#|-----------------|-----------------|-----------------|-----------------|
E |-8-----8-----8---|-8-----8---------|-8-----8-----8---|-8-----8---------|
B |-7-----7-----7---|-7-----7---------|-7-----7-----7---|-7-----7---------|
F#|-6-----6-----6---|-6-----6---------|-6-----6-----6---|-6-----6---------|
B |----0-----0----0-|----0--------0---|----0-----0----0-|----0--------0---|

                                                                       *
C#|-----------------|-----------------|-----------------|-------------<9>-|
G#|-----------------|-----------------|-----------------|--------------<9>|
E |-8-----8-----8---|-8-----8---------|-8-----8-----8---|-8-----8-------<9>
B |-7-----7-----7---|-7-----7---------|-7-----7-----7---|-7-----7---------|
F#|-6-----6-----6---|-6-----6---------|-6-----6-----6---|-6-----6---------|
B |----0-----0----0-|----0--------0---|----0-----0----0-|----0------------|

* My high E string is broken right now, so that's just a guess.  I'll fix the tab when I get a new one.

C#|---------------------------------|---------------------------------|
G#|---------------------------------|---------------------------------|
E |---------------------------------|---------------------------------|
B |---------------------------------|---------------------------------|
F#|-5-5-5-----5-----3-------1-------|-5-5-5-----5-----3-------1-------|
B |-------0-0---6-0---5-3-3---3-1-1-|-------0-0---6-0---5-3-3---3-1-1-|

C#|---------------------------------|---------------------------------|
G#|---------------------------------|---------------------------------|
E |---------------------------------|---------------------------------|
B |---------------------------------|---------------------------------|
F#|-5-5-5-----5-----3-------1-------|-5-5-5-----5-----3-------1-------|
B |-------0-0---6-0---5-3-3---3-1-1-|-------0-0---6-0---5-3-3---3-----|
                                                          P.M.

FINAL REFRAIN:

C#|-----------------|-----------------|-----------------|-----------------|
G#|-----------------|-----------------|-----------------|-----------------|
E |-3-7-----3-7-----|-3-7-----3-7-10--|-3-7-----3-7-----|-3-7-----3-7-5---|
B |-3-7-----3-7-----|-3-7-----3-7-10--|-3-7-----3-7-----|-3-7-----3-7-5---|
F#|-1-5-00-01-5-00-0|-1-5-00-01-5-8---|-1-5-00-01-5-00-0|-1-5-00-01-5-3---|
B |-----00-0----00-0|-----00-0--------|-----00-0----00-0|-----00-0--------|
        P.M.    P.M.      P.M.              P.M.    P.M.      P.M.

C#|-----------------|-----------------|-----------------|-----------------|
G#|-----------------|-----------------|-----------------|-----------------|
E |-3-7-----3-7-----|-3-7-----3-7-10--|-3-7-----3-7-----|-3-7-----3-7-5---|
B |-3-7-----3-7-----|-3-7-----3-7-10--|-3-7-----3-7-----|-3-7-----3-7-5---|
F#|-1-5-00-01-5-00-0|-1-5-00-01-5-8---|-1-5-00-01-5-00-0|-1-5-00-01-5-3---|
B |-----00-0----00-0|-----00-0--------|-----00-0----00-0|-----00-0--------|
        P.M.    P.M.      P.M.              P.M.    P.M.      P.M.

C#|-----------------|----------------*|
G#|-----------------|----------------*|
E |-----------------|----------------*| Those are
B |-0--------[0]/-/-|-/-121212121212-*| 12's and 13's
F#|-1--------[1]/-/-|-/-131313131313-*|
B |-0---------------|-------------0--*|

            
            
Suggest correction
Creating personal tab
Creating personal tab
You can edit any tab online and save it as your Personal.

You can edit, replace or remove any tab part or add personal notes – all changes will be seen only by you.

Personal tabs can be accessed anytime from any device, even offline.
Learn more »
Give kudos to tab author, rate the tab!
1 2 3 4 5
comments
print report bad tab
guest
You may want to rate the tab now too:
select rating
Wanna post a correction for this tab? Suggest correction