Oops, an error
Loading. Please wait.

Drown You Out intro tab

version 2
version 2

Intro

Whole song

1,676 views 3 this week
3 commentsread comments
1 2 3 4 5
x 3
add to favorites
×
Save as Personal and add changes to this tab that will be seen only by you. Learn more ›
×
You can save this tab as Personal to edit and correct it or add notes. All changes will be seen only by you. Learn more »
launch autoscroll
font size
0
reset
how to read this tab
guitar tuner
edit
Autoscroll
slow
fast
+/-
esc
set tempo
stop
Hey there, this is my debut! 
And I've seen many totaly uncorrect tabs for this intro,
so this is my try. I think this song is recorded with 2 guitars, but
I wrote this tab for a single guitar and it sound good, too.


Artist: Crossfade
Song: Drown You Out
Album: Falling Away (2006)
Tabbed by: BadMike (badmike@gurkenland.com)

Tuning: Drop D


e|-------------------------x-x----x-x----x-x----x--x----|
B|-------------------------7-7----7-7----7-7----7--7----|
G|-------------------------x-x----x-x----x-x----x--x----|
D|--7--7-6-6----7--7-6-6---x-x----x-x----x-x----x--x----|
A|--4--4-4-4----4--4-4-4---x-x-x--x-x-x--x-x-x--x--x-x--|
D|-----------------------------0------0------0-------0--|

e|--------------------------------------------------------------------------|
B|--------------------------------------------------------------------------|
G|--------------------------------------------------------------------------|
D|--7--7-6-6----7--7-6-6-----11-12-09-11----09----------------------------4-|
A|--4--4-4-4----4--4-4-4-----------------12----11-12-09-11-07-09-05-07-04-4-|
D|------------------------------------------------------------------------4-|


            
            
Suggest correction
Creating personal tab
Creating personal tab
You can edit any tab online and save it as your Personal.

You can edit, replace or remove any tab part or add personal notes – all changes will be seen only by you.

Personal tabs can be accessed anytime from any device, even offline.
Learn more »
Give kudos to tab author, rate the tab!
1 2 3 4 5
comments
print report bad tab
3 comments total.
0 reply
schecterdude101 22 Mar 11, 2007 01:14 PM

the chords are right but the ending palm mute is off

0 reply
Kryfer 10 Mar 12, 2007 12:06 PM

try ver3, sounds more accurate to me

0 reply
Kryfer 10 May 31, 2007 05:49 PM

I figured out that palm muted (fast played) part of intro contains 14 (!) notes! Maybe later i will send tab for whole song... damn, tabbing Crossfade is so hard (i mean tabbing real good)...

guest
You may want to rate the tab now too:
select rating
Wanna post a correction for this tab? Suggest correction