Oops, an error
Loading. Please wait.

Invincible Acoustic tab

version 3
version 3

Whole song

Interactive

496 views 1 this week
no commentswrite comment
1 2 3 4 5
3 more votes to show rating
add to favorites
×
Save as Personal and add changes to this tab that will be seen only by you. Learn more ›
×
You can save this tab as Personal to edit and correct it or add notes. All changes will be seen only by you. Learn more »
launch autoscroll
font size
0
reset
how to read this tab
guitar tuner
edit
Autoscroll
slow
fast
+/-
esc
set tempo
stop
Invincible Acoustic=
This is as close as i can possibly get this just from watching video and listening to 
this over and over again. the main song is in drop D but his acoustic version is dropped 
down to C G C F A D. Just pay attention to the changes and watch for the chord 
progressions. Here goes

^ let ring out

Intro:

D-0-0--000--0--0000000---------|
A-3-3--333--3--3333333---------|
F-0h2--222--0--0000000---------|
C-0-0--000--0--0000000 repeat--| 2x
G-x-x--xxx--x--xxxxxxx---------|
C-5-5--555--5--5555555---------|
  ^ ^       ^
Verse1:

I memorized all the words for you.... (repeat intro 2x)

D-x--xxx--x--xxxxxxx--x--xxx--x--xxxxxxx--0-0--000--0--0000000-|
A-3--333--3--3333333--1--111--3--3333333--3-3--333--3--3333333-|
F-3--333--3--3333333--2--222--3--3333333--0h2--222--0--0000000-|
C-2--222--2--2222222--2--222--2--2222222--0-0--000--0--0000000-|
G-3--333--3--3333333--0--000--3--3333333--x-x--xxx--x--xxxxxxx-|
C-x--xxx--x--xxxxxxx--x--xxx--x--xxxxxxx--5-5--555--5--5555555-|
  ^       ^           ^       ^           ^ ^       ^
But If you only knew...how much thats just not like me....

D-0-0--000--0--0000000--0-0--000--0--0000000-|
A-3-3--333--3--3333333--3-3--333--3--3333333-|
F-0h2--222--0--0000000--0h2--222--0--0000000-|
C-0-0--000--0--0000000--0-0--000--0--0004444-|
G-x-x--xxx--x--xxxxxxx--x-x--xxx--x--xxxxxxx-|
C-5-5--555--5--5555555--5-5--555--5--5555555-|
  ^ ^       ^           ^ ^       ^     ^^^^

I wait up late .... every night.....

D-x--xxx--x--xxxxxxx--x--xxx--x--xxxxxxx--0-0--000--0--0000000-0-0-0-0-|
A-3--333--3--3333333--1--111--3--3333333--3-3--333--3--3333333-3-3-3-3-|
F-3--333--3--3333333--2--222--3--3333333--0h2--222--0--0000000-0-0-0-0-|
C-2--222--2--2222222--2--222--2--2222222--0-0--000--0--0000000-4-0-4-0-|
G-3--333--3--3333333--0--000--3--3333333--x-x--xxx--x--xxxxxxx-x-x-x-x-|
C-x--xxx--x--xxxxxxx--x--xxx--x--xxxxxxx--5-5--555--5--5555555-5-5-5-5-|
  ^       ^           ^       ^           ^ ^       ^                ^

Just to hear your voice..............but you dont know thats nothing like me

Pre chorus1:

D-x-xx-x-xx-x-xx-x-xx--xx--xxxxxxx---------|
A-x-xx-x-xx-x-xx-3-33--33--3333333---------|
F-x-xx-x-xx-x-xx-3-33--33--3333333---------|
C-2-xx-4-xx-5-xx-2-22--22--2222222 repeat--| 4x
G-2-xx-4-xx-5-xx-3-33--33--3333333---------|
C-2-xx-4-xx-5-xx-x-xx--xx--xxxxxxx---------|
  ^    ^    ^    ^

You know i wonder how you already figured out....
all these things that ive tried to hide....
all this time ive been hoping you dont find out....
all the things that i hide on the inside....

Chorus1:

slide a power chord on the C G C strings from the 12th fret
down to the power chord 2nd fret and repeat the pre chorus 4 times and then go to verse 
2 and repeat i will write out the words for the second verse down here after the chorus.

I cant be held....responsible....
this is all so new to me....
just when i thinkim invincible....
you come and happen to me....

Verse2:

Tab is same as verse1 just repeat with lyrics below.

I wanna make sure everythingis prfect for you
but if you only knew thats not like me to folow through
Maybe if i gave up all these dead end dream just to be with you
But you dont know thats nothing like me.

Pre chorus2:

Tab is the same as pre chorus1 and the lyrics are the exact same just repeat as typed above.

Chorus2:

Tab is the same as Chorus1 an the lyrics are the exact same just repeat as typed above.

Bridge1:

D-xxxxxxxx--xxxxxxxx--xxxxxxxx--xxxxxx-xx-xx-xx-xx-xx---------|
A-xxxxxxxx--xxxxxxxx--xxxxxxxx--xxxxxx-xx-xx-xx-xx-xx---------|
F-xxxxxxxx--xxxxxxxx--xxxxxxxx--xxxxxx-xx-xx-xx-xx-xx---------|
C-22222222--44444444--00000000--121212-12-12-12-12-12 repeat--| 2x
G-22222222--44444444--00000000--121212-12-12-12-12-12---------|
C-22222222--44444444--00000000--9-9-9--10-10-10-10-10---------|
  ^^^^^^^^  ^^^^^^^^  ^^^^^^^^  ^ ^ ^   ^  ^  ^  ^  ^

Now I'm waking up Ive finally had enough of this wreck of a lifetime
I never thought I'd survive it Now Im taking back
All I gave up for that Leave my pain behind wash these stains from my life.

Bridge2:

D-x--x-xx-xx-xxx--x--x-xx-xx-xxx--x--x-xx-xx-xxx--x--x-xx-xx-xxx-|
A-x--x-xx-xx-xxx--x--x-xx-xx-xxx--x--x-xx-xx-xxx--x--x-xx-xx-xxx-|
F-x--x-xx-xx-xxx--x--x-xx-xx-xxx--x--x-xx-xx-xxx--x--x-xx-xx-xxx-|
C-2--2-22-22-222--0--0-00-00-000--5--5-55-55-555--7--7-77-77-777-|
G-2--2-22-22-222--0--0-00-00-000--3--3-33-33-333--5--5-55-55-555-|
C-2--2-22-22-222--0--0-00-00-000--3--3-33-33-333--5--5-55-55-555-|

Just when I thought all was lost You came and made it all okay...

Chorus3:

Slide from power chord 12 again and repeat chorus 4 times.

Outro:

This is a very tricky outro that Ed does it is pretty technical but if you listen to the 
way he uses the chord progressions and listen to the rythm youll nail it after a few tries...

D-0-0--000--0--0000000--0-0--000--0--0000000-|
A-3-3--333--3--3333333--3-3--333--3--3333333-|
F-0h2--222--0--0000000--0h2--222--0--0000000-|
C-0-0--000--0--0000000--0-0--000--0--0004444-|
G-x-x--xxx--x--xxxxxxx--x-x--xxx--x--xxxxxxx-|
C-5-5--555--5--5555555--5-5--555--5--5555555-|
  ^ ^       ^           ^ ^       ^     ^^^^

I memorized all the words for you.....

D-x--xxx--x--xxxxxxx--------x-xxx-x--xxxxxxxx--0-0--000--0--0000000--0-0-0-0-|
--3--333--3--3333333--------1-111-3--33333333--3-3--333--3--3333333--3-3-3-3-|
F-3--333--3--3333333--4p2p0-2-222-3--33333333--0h2--222--0--0000000--0-0-0-0-|
C-2--222--2--2222222--------2-222-2--22222222--0-0--000--0--0000000--4-0-4-0-|
G-3--333--3--3333333--------0-000-3--33333333--x-x--xxx--x--xxxxxxx--x-x-x-x-|
C-x--xxx--x--xxxxxxx--------x-xxx-x--xxxxxxxx--5-5--555--5--5555555--5-5-5-5-|
  ^       ^        ^let ring^     ^            ^ ^       ^           ^ ^ ^ ^

The end!!! i hope that this is undersandable and if you have any questions just email me 
at guitarslave878787@yahoo.com thanks and rate please.
Suggest correction
Creating personal tab
Creating personal tab
You can edit any tab online and save it as your Personal.

You can edit, replace or remove any tab part or add personal notes – all changes will be seen only by you.

Personal tabs can be accessed anytime from any device, even offline.
Learn more »
Give kudos to tab author, rate the tab!
1 2 3 4 5
comments
print report bad tab
guest
Wanna post a correction for this tab? Suggest correction