Oops, an error
Loading. Please wait.

No Giving Up Bass Tab

1,289 views 1 this week
no commentswrite comment
1 2 3 4 5
2 more votes to show rating
add to favorites
launch autoscroll
font size
0
reset
guitar tuner
Autoscroll
slow
fast
+/-
esc
set tempo
stop
Help us to improve Ultimate-Guitar.com Take our survey!
×
Author
Difficulty
intermediate
Crossfade - No giving up
Album: Crossfade

bass tab

by : doky 2007
taquilleros_de_sudamerica_maroyu_el_grupo_tropical_del_momento@hotmail.com

5-stringed bass
G D A E B

   INTRO
G-|---------------------------|
D-|---------------------------|
A-|---------------------------|
E-|-2-2222--------------------|
B-|--------3-3333-00-00-00-00-|
                                                                              

   VERSO
G-|-----------|------------------|-----------|----------|
D-|-----------|------------020---|-----------|----------|
A-|-----------|-2-22---020-----2-|-----------|-22222222-|
E-|-2-22------|------------------|-----------|----------|
B-|------3-33-|------------------|-----------|----------|
                                   variacion                                   

   MIDDLE
G-|-------------------|------------------|-----------------|
D-|-------------------|------------------|-----------------|
A-|-------------------|------------------|-----------------|
E-|-22/14\-44/16\7777-|-2/14\------------|-2/14\-4/16\7777-|
B-|-------------------|-------3/15\0-345-|-----------------|
                                                                              
Le mando congratulaciones a La Mariela Bernal del QB 2004. me acuerdo ps
que una noche me he encontrado en el minibus, justo se han subido en el cruce ps
con el Amigo Bronco ps porque estaban haciendo el trabajo de Formacion Cristiana
y apenas habian acabado.

doky2007
Suggest correction
Give kudos to tab author, rate the tab!
1 2 3 4 5
comments
print report bad tab
guest
You may want to rate the tab now too:
select rating
Wanna post a correction for this tab? Suggest correction