Oops, an error
Loading. Please wait.

No Giving Up Tab

version 1
version 1

Intro

Whole song

2,800 views 1 this week
4 commentsread comments
1 2 3 4 5
x 4
add to favorites
×
Save as Personal and add changes to this tab that will be seen only by you. Learn more ›
×
You can save this tab as Personal to edit and correct it or add notes. All changes will be seen only by you. Learn more »
save as personal
new!
launch autoscroll
font size
0
reset
how to read this tab
guitar tuner
Autoscroll
slow
fast
+/-
esc
set tempo
stop
Author
Drop B tuning (tune to drop d then tune down a further 1 1/2 steps)

Db|--------------------------------------------|
Ab|--------------------------------------------|
E |--------------------------------------------|      repeat as needed
B |9-9-9999--3-3-3333--00-00-00-00-3p2---------|
Gb|7-7-7777--3-3-3333--00-00-00-00----3--------|
B |7-7-7777--3-3-3333--00-00-00-00-------------|

Db|--------------------------------|
Ab|--------------------------------|
E |--------------------------------|
B |9-9-9999--3-3-3333--00-00-00-00-|
Gb|7-7-7777--3-3-3333--00-00-00-00-|
B |7-7-7777--3-3-3333--00-00-00-00-|
any corrections please post on corrections page, but i'm sure this is 99% right as the intro/chorus.
Suggest correction
comments
print report bad tab
4 comments total. Showing first comments.
0 reply
zedekai 10 Mar 15, 2005 07:00 PM

great tab man

0 reply
sexy-man 40 Dec 11, 2005 02:00 PM

meh its alright but he uses a 7 string and if u tune it down to B the strings get very floppy

0 reply
macko666 10 Jan 29, 2006 11:52 AM

it should be like this:
Db|--------------------------------------------|
Ab|--------------------------------------------|
E |--------------------------------------------|
B |9-9-9999--3-3-3333--22-22-22-22-3p2---------|
Gb|7-7-7777--3-3-3333--00-00-00-00----3--------|
B |7-7-7777--3-3-3333--00-00-00-00-------------|

guest
You may want to rate the tab now too:
select rating
Wanna post a correction for this tab? Suggest correction