Oops, an error
Loading. Please wait.

No Giving Up Tab

version 2
version 2

Whole song

4,596 views 1 this week
3 commentsread comments
1 2 3 4 5
1 last vote to show rating
add to favorites
launch autoscroll
font size
0
reset
how to read this tab
guitar tuner
Autoscroll
slow
fast
+/-
esc
set tempo
stop
Help us to improve Ultimate-Guitar.com Take our survey!
×
Author
Tuning
B F# B E G# C#
Artist: Crossfade
Song: No Giving Up
Album: Crossfade
Tuning: Drop B (B F# B E G# C#)

Alright, this will be my first tab for Ultimate Guitar. I've submitted some tabs to
where my username is Dani_Boy, so if you want to see my christian tabs you can check 
out.

No Giving Up is a very uplifting song, and it is also a song with some neat guitarplay.
does a lot of their stuff (maybe everything) with a 7-stringed guitar, but since i don't
one I've tabbed this in Drop B. I also think that this song seems to be easier to play 
dropped mode.

This song uses a lot of distortion for the intro/chorus stuff, pretty clean sound for
verses and a wierd, cool effect for the solo. During the solo and a little bit into the
you can hear the verse riff with slightly more distortion. As you can see I talk way too 
so let's get on with it.

h = Hammer on
p = Pull off
b = Bend
/ = Upward slide
\ = Downward slide (All slides quick and short)
x = Scratching or muting (In this song only complete muting. You will have
    to stretch your index finger over the entire third fret, play all the
    third fret notes and mute the two strings with the same finger.)

   Intro:
C#|-----------333335------------------------|
G#|-----------xxxxxx------------------------|
E |-----------xxxxxx--109-109-109-109-------|
B |--9999910--333333--0-0-0-0-0-0-0-0-------|
F#|--777777---333333--0-0-0-0-0-0-0-0-87----|
B |--777777---333333--0-0-0-0-0-0-0-0---10\-|

C#|-----------333335-------------------|
G#|-----------xxxxxx-------------------|
E |-----------xxxxxx--109-109-109-109--|
B |--9999910--333333--0-0-0-0-0-0-0-0--|
F#|--777777---333333--0-0-0-0-0-0-0-0--|
B |--777777---333333--0-0-0-0-0-0-0-0--|


   Verse 1:
C#|-------------------------------------------|
G#|--------10-10--------8---------------------|
E |-------------9---------7---9h10p9---9h10p9-|x7
B |--7h10p7-------7h10p7----------------------|

C#|-----------------------------------|
G#|--------10-10--------8-------------|
E |-------------9---------7-77-77-77--|
B |--7h10p7-------7h10p7----77-77-77--|
F#|-------------------------55-55-55--|
B |-----------------------------------|


   Chorus:
C#|-----------333335------------------------|
G#|-----------xxxxxx------------------------|
E |-----------xxxxxx--109-109-109-109-------|
B |--9999910--333333--0-0-0-0-0-0-0-0-------|
F#|--777777---333333--0-0-0-0-0-0-0-0-87----|x2
B |--777777---333333--0-0-0-0-0-0-0-0---10\-|

C#|-----------333335---------------------|
G#|-----------xxxxxx---------------------|
E |-----------xxxxxx--109-109-55-55-5/7--|
B |--9999910--333333--0-0-0-0-55-55-5/7--|
F#|--777777---333333--0-0-0-0-33-33-3/5--|x2
B |--777777---333333--0-0-0-0------------|


   Interlude and verse 2:
C#|-------------------------------------------|
G#|--------10-10--------8---------------------|
E |-------------9---------7---9h10p9---9h10p9-|x5
B |--7h10p7-------7h10p7----------------------|

C#|-----------------------------------|
G#|--------10-10--------8-------------|
E |-------------9---------7-77-77-77--|
B |--7h10p7-------7h10p7----77-77-77--|
F#|-------------------------55-55-55--|
B |-----------------------------------|


Chorus


   Solo: (Lead Guitar)
C#|---------------------------------------|
G#|-------------------8-------------------|
E |--------------------79--79b10b9---97---|
B |--7-------9---10--------------------109|

C#|-------------------------------------|
G#|-----------------8-------------------|
E |------------------79--79b10b9---97---|
B |7-------9---10--------------------109|


   Solo and bridge: (Verse lick)
C#|-------------------------------------------|
G#|--------10-10--------8---------------------|
E |-------------9---------7---9h10p9---9h10p9-|x5
B |--7h10p7-------7h10p7----------------------|

C#|--------------------------|
G#|--------10-10--------8----|
E |-------------9---------7--|
B |--7h10p7-------7h10p7-----|
F#|--------------------------|
B |--------------------------|


   Final Chorus:
C#|-------------------------------------|
G#|-------------------------------------|
E |-------------------------------------|
B |--7--7--7-3--3--3-0--0--0--0---------|
F#|--7--7--7-3--3--3-0--0--0--0--87-----|x4
B |--7--7--7-3--3--3-0--0--0--0----10/--|


   Outro:
C#|-----------333335------------------------|
G#|-----------xxxxxx------------------------|
E |-----------xxxxxx--109-109-109-109-------|
B |--9999910--333333--0-0-0-0-0-0-0-0-------|
F#|--777777---333333--0-0-0-0-0-0-0-0-87----|x2
B |--777777---333333--0-0-0-0-0-0-0-0---10\-|

C#|-----------333335---------------------|
G#|-----------xxxxxx---------------------|
E |-----------xxxxxx--109-109-55-55-5/7--|
B |--9999910--333333--0-0-0-0-55-55-5/7--|
F#|--777777---333333--0-0-0-0-33-33-3/5--|
B |--777777---333333--0-0-0-0------------|

C#|-----------333335--------------------|
G#|-----------xxxxxx--------------------|
E |-----------xxxxxx--109109--55-55-5---|
B |--9999910--333333--0-0-0-0-55-55-50--|
F#|--777777---333333--0-0-0-0-33-33-30--|
B |--777777---333333--0-0-0-0--------0--|


Okay, there you go. At some parts it might seem a little bit confusing due to the "two
notes" like 10, 12 and so on, but I don't think you'll have too much problems with that.
ROCKS!!!
God Bless,
Daniel
Suggest correction
Give kudos to tab author, rate the tab!
1 2 3 4 5
comments
print report bad tab
3 comments total.
0 reply
metal_man173 52 Sep 22, 2006 05:32 AM

Man, my sentences got way cut off.

0 reply
metal_man173 52 Sep 23, 2006 04:38 PM

Huh, wierd. Now it seems to be mostly fixed, but a little while ago some sentences were cut off. =P

If you have any feedback for me about the actual tab, then please tell me. A tabber needs appreciation if he is good, and if he sucks then he needs some advice to get it straight. So please be honest and tell me what you think. :)

0 reply
airnakhla316 51 Feb 06, 2007 08:48 PM

good tab bro, sounds pretty good

guest
You may want to rate the tab now too:
select rating
Wanna post a correction for this tab? Suggest correction