Oops, an error
Loading. Please wait.

So Far Away bass

version 2
version 2

Whole song

Interactive

1,704 views 1 this week
no commentswrite comment
1 2 3 4 5
1 last vote to show rating
add to favorites
×
Save as Personal and add changes to this tab that will be seen only by you. Learn more ›
×
You can save this tab as Personal to edit and correct it or add notes. All changes will be seen only by you. Learn more »
launch autoscroll
font size
0
reset
guitar tuner
edit
Autoscroll
slow
fast
+/-
esc
set tempo
stop
Author
Difficulty
Crossfade - So far away
Album: Crossfade

bass tab

by : doky 2007
taquilleros_de_sudamerica_maroyu_el_grupo_tropical_del_momento@hotmail.com

5-stringed bass
G D A E B

   INTRO
G-|-----------------------------|
D-|-----00------------44-----55-|
A-|-222----222-33-222----222----|
E-|-----------------------------|
B-|-----------------------------|
                                                                              

   VERSO
G-|-----------------|-----------------|-------|
D-|-----------------|-----------------|-------|
A-|-----------------|-----------------|-------|
E-|-----------------|-0---xxx-0---xxx-|-------|
B-|-1---xxx-1---xxx-|-----------------|-3-----|
                                                                              

   CORO
G-|---------------|---|-----|-----------|-----|
E-|---------------|---|-----|-----------|-----|
A-|---------------|---|-----|-----------|-----|
E-|--------000000-|---|-3-5-|-----------|-3---|
B-|-111111--------|---|-----|-----------|---3-|
                    +         o tambien                                        

   MIDDLE
G-|----------------------|---|------------|-----|----------------------|-----|
D-|----------------------|---|------------|-----|----------------------|-----|
A-|----------------------|---|-----9h10-9-|-----|----------------------|-----|
E-|----------------------|---|-777--------|-----|----------------------|-----|
B-|-553-553-553-53---5-3-|---|------------|-----|-886-886-886-86---8-6-|-----|
           x2 *A*          +     x2 *B*    +*A*+                        +*B*+  

G-|---------------------------|-----------|
D-|---------------------------|-----------|
A-|-3333-0000-----------------|-3333-0000-|
E-|-----------0000----3333-00-|-----------|
B-|----------------33---------|-----------|
                                                                              

   FIN
G-|-------|---------|-------------|
D-|-------|---------|-------------|
A-|-------|---------|-------------|
E-|-------|---------|-------------|
B-|-00----|---------|-553-553-535-|
            + *A* +                      

Mando congratulaciones Al Jhon Gomez del QB 2004, este cuate un dia pues ha 
hecho su preste en su casa o en un local por la Garita y han salido
a lo tara al Prado para ir a bailar y festjar que el Bolivar gano la copa
de copas o algo como de copas era.

doky2007                                      

            
            
Suggest correction
Creating personal tab
Creating personal tab
You can edit any tab online and save it as your Personal.

You can edit, replace or remove any tab part or add personal notes – all changes will be seen only by you.

Personal tabs can be accessed anytime from any device, even offline.
Learn more »
Give kudos to tab author, rate the tab!
1 2 3 4 5
comments
print report bad tab
guest
You may want to rate the tab now too:
select rating
Wanna post a correction for this tab? Suggest correction