Oops, an error
Loading. Please wait.

So Far Away Tab

version 2
version 2

Whole song

Interactive

3,454 views 12 this week
2 commentsread comments
1 2 3 4 5
please rate
add to favorites
launch autoscroll
font size
0
reset
how to read this tab
guitar tuner
Autoscroll
slow
fast
+/-
esc
set tempo
stop
Help us to improve Ultimate-Guitar.com Take our survey!
×
Author
Difficulty
Tuning
intermediate
B F# B E G# C#
THIS IS CROSSFADE'S "SO FAR AWAY" FROM THEIR SELF-TITLE ALBUM.
TUNING IS DROP B.
TOOK ME A WHILE TO FIGURE THIS ONE OUT. ENJOY AND LEAVE COMMENTS!
BTW THIS IS FOR SINGLE PLAYERS ONLY. I WILL SOON MAKE A DUO WITH BOTH INTRO PARTS IN THE SAME TAB.

\\\ SLIDE DOWN
.   PALM MUTE
h   HAMMER-ON
~~~ LET RING

INTRO: "...me now: I've been changing but you'll never see me..."
C#|-------1~---------------------------5~---------6~-------1~-|
G#|------------------4~-------3~---3------3---3------3---3----|
 E|---3------3---3------3---3----0---0------0---0------0------|
 B|-1---1------1---1------1-----------------------------------|
F#|-----------------------------------------------------------|
 B|-----------------------------------------------------------|
    . . .    . . . .    . . .    . . .    . . . .    . . .
PRE-VERSE: [2X]
C#|------------------------|------------------------|
G#|------------------------|------------------------|
 E|------------------------|------------------------|
 B|------3-------1---------|------7-------8-------3-|
F#|----------------------5-|------------------------|
 B|-0-1-----0-1-----0-1----|-0-5-----0-5-----0-5----|

VERSE: [LINE 1 AND 2 2X, THEN LINE 3] "No more holding it in..."
C#|-----------------------------|---------------------------|
G#|-----------------------------|---------------------------|
 E|-----------------------------|---------------------------|
 B|-5~~-------5~~-------5~~-----|-7~~-------7~~-------------|
F#|-0h1--1--1-0h1--1--1-0h1-0-0-|-0h5--5--5-0h5--5--5--5--0-|
 B|-0h1--1--1-0h1--1--1-0h1-0-0-|-0h5--5--5-0h5--5--5--5--0-|
         .  .      .  .     . .        .  .      .  .  .  .
C#|-----------------------------|---------------------------|
G#|-----------------------------|---------------------------|
 E|-----------------------------|---------------------------|
 B|-5~~-------5~~-------5~~-----|-7~~-------7~~-------------|
F#|-0h1--1--1-0h1--1--1-0h1-0-0-|-0h5--5--5-0h5--3--3--3--0-|
 B|-0h1--1--1-0h1--1--1-0h1-0-0-|-0h5--5--5-0h5--3--3--3--0-| 
         .  .      .  .     . .        .  .      .  .  .  .
"...for are the answers to..."
C#|---------------------------|-----------------------------|
G#|---------------------------|-----------------------------|
 E|---------------------------|-----------------------------|
 B|-5~~-------5~~-------------|-7~~-------7~~-------------3-|
F#|-0h1--1--1-0h1--1--1--1--0-|-0h5--5--5-0h5--5--5--5--5-3-|
 B|-0h1--1--1-0h1--1--1--1--0-|-0h5--5--5-0h5--5--5--5--5-3-|
         .  .      .  .  .  .        .  .      .  .  .  .

CHORUS: "I'm so far away..."
C#|----------------------|---------------------------|
G#|----------------------|---------------------------|
 E|----------------------|---------------------------|
 B|-5---5---5--8---8---8-|-5---5---5--8---8---10--12-|
F#|-1---1---1--5---5---5-|-1---1---1--5---5----8---8-|
 B|-1---1---1--5---5---5-|-1---1---1--5---5----7---8-|

C#|-------------------------|----------------------|
G#|-------------------------|----------------------|
 E|-------------------------|----------------------|
 B|-5---5---5--8---8---8--7-|-5---5---5--8---8---3-|
F#|-1---1---1--5---5---5--3-|-1---1---1--5---5---3-|
 B|-1---1---1--5---5---5--3-|-1---1---1--5---5---3-|

PRE-VERSE
VERSE
CHORUS
INTRO

BREAKDOWN A:
C#|---------------------------------|---------------------------------|
G#|---------------------------------|---------------------------------|
 E|---------------------------------|---------------------------------|
 B|-5535-353553-5-3-5535-353553-5-3-|-7-7--7h8-8--7---7-7--7h8-8--7---|
F#|-5535-353553-5-3-5535-353553-5-3-|-5-5--5~~~~--5---5-5--5~~~~--5---|
 B|-5535-353553-5-3-5535-353553-5-3-|----0-------0--0----0-------0--0-|

C#|---------------------------------|---------------------------------|
G#|---------------------------------|---------------------------------|
 E|---------------------------------|---------------------------------|
 B|-5535-353553-5-3-8838-383883-8-3-|-7-7--7h8-8--7---7-7--7h8-8--8-7-|
F#|-5535-353553-5-3-8838-383883-8-3-|-5-5--5~~~~--5---5-5--5~~~~--5-5-|
 B|-5535-353553-5-3-8838-383883-8-3-|----0-------0--0----0-------0----|

BREAKDOWN B: [3X] "Hey, hey watch me wave..."
C#|--------------------------------|--------------------------------|
G#|--------------------------------|--------------------------------|
 E|-10---10---10--7--7--7---7------|-----------------5---5---5--5---|
 B|--8----8----8--5--5--5---5-8\\\-|-5---5---5--5-3--3---3---3--3-3-|
F#|--6----6----6--3--3--3---3------|-5---5---5--5-3--1---1---1--1-3-|
 B|--------------------------------|-5---5---5--5-3---------------3-|

BREAKDOWN C: "Feels so good to say..."
C#|--------------|------------|
G#|--------------|------------|
 E|-10---10---10-|-7--7--7\\\-|
 B|--8----8----8-|-5--5--5\\\-|
F#|--6----6----6-|-3--3--3\\\-|
 B|--------------|------------|

CHORUS 3:
C#|----------------------|---------------------------|
G#|----------------------|---------------------------|
 E|----------------------|---------------------------|
 B|-5---5---5--8---8---8-|-5---5---5--8---8---10--12-|
F#|-1---1---1--5---5---5-|-1---1---1--5---5----8---8-|
 B|-1---1---1--5---5---5-|-1---1---1--5---5----7---8-|

C#|----------------------------|------------------|-COUNT-2|COUNT-3|COUNT-4-|
G#|----------------------------|------------------|-------------------------|
 E|----------------------------|------------------|-------------------------|
 B|-5---5---5--8---8---8-------|-0-0---0-0---0~~~-|-------------------------|
F#|-1---1---1--5---5---5-------|-0-0---0-0---0~~~-|-0-0-0-0-0-0-0-0-3-1-0-1-|
 B|-1---1---1--5---5---5-8-7-8-|-0-0---0-0---0~~~-|-0-0-0-0-0-0-0-0---------|
                                                    . . . . . . . .
OUTRO: [2X]
C#|---------------------------|
G#|---------------------------|
 E|---------------------------|
 B|-5535-353553-5-3-5535-3535-|
F#|-5535-353553-5-3-5535-3535-|
 B|-5535-353553-5-3-5535-3535-|
Suggest correction
What's this?
You can suggest a correction to this tab. Community and Mods will review your correction and vote to approve or reject it.
comments
We did not receive enough feedback on this tab! Please rate:
print report bad tab
1 2 3 4 5
2 comments total.
0 reply
Vash_15 1,431 wrote on March 13 2012, 03:31 pm

Why doesn't anyone realize this is done on a 7 string guitar? The tuning is BDADGBe not drop B

0 reply
emorockerdude 300 wrote on March 14 2012, 07:45 pm

I know it is a 7-str guitar, but I made a tab just so a 6-str player could still get by. You know?

guest
You may want to rate the tab now too:
select rating
Please do not post tabs as comments. Select "correction" instead!