Oops, an error
Loading. Please wait.

Starless bass

1,587 views 3 this week
no commentswrite comment
1 2 3 4 5
1 last vote to show rating
add to favorites
×
Save as Personal and add changes to this tab that will be seen only by you. Learn more ›
×
You can save this tab as Personal to edit and correct it or add notes. All changes will be seen only by you. Learn more »
launch autoscroll
font size
0
reset
guitar tuner
edit
Autoscroll
slow
fast
+/-
esc
set tempo
stop
Author
Difficulty
Crossfade - Starless
Album: Crossfade

bass tab

by : doky 2007
taquilleros_de_sudamerica_maroyu_el_grupo_tropical_del_momento@hotmail.com

5-stringed bass
G D A E B

   INTRO
G-|--------------------|-----------------|----------------------|
D-|--------------------|-----------------|----------------------|
A-|--------------------|-----------------|----------------------|
E-|--------------------|-------------3-1-|----------------------|
B-|-2p0-2p0-2p0-2p0-33-|-2p0-2p0-2p0-----|-2p0-2p0-2p0-2p0-33-2-|


   VERSO
G-|---------------------------------------|
D-|---------------------------------------|
A-|---------------------------------------|
E-|-5-55-555-55-2-22-222-22---------------|
B-|-------------------------2-22-222-0220-|


   CORO
G-|---------------------------|
D-|---------------------------|
A-|-4444-3-333----------------|
E-|------------0-000-4-444----|
B-|------------------------22-|


   BREAK
G-|------|---------|
D-|------|---------|
A-|------|---------|
E-|------|---------|
B-|-2----|-2-2-2-2-|

Me, le quiero mandar congratulaciones a La Isabel Angelo del QB 2004 que tenia
su local de fiesta por la Portada cerca a la cancha Maracana de esa
misma zona donde nos invitaba a sus prestes huaaaaaaasos con grupos en vivo.

doky2007

            
            
Suggest correction
Creating personal tab
Creating personal tab
You can edit any tab online and save it as your Personal.

You can edit, replace or remove any tab part or add personal notes – all changes will be seen only by you.

Personal tabs can be accessed anytime from any device, even offline.
Learn more »
Give kudos to tab author, rate the tab!
1 2 3 4 5
comments
print report bad tab
guest
You may want to rate the tab now too:
select rating
Wanna post a correction for this tab? Suggest correction