Oops, an error
Loading. Please wait.

Unknown tab

version 1
version 1

Whole song

9,837 views 3 this week
4 commentsread comments
1 2 3 4 5
x 10
add to favorites
×
Save as Personal and add changes to this tab that will be seen only by you. Learn more ›
×
You can save this tab as Personal to edit and correct it or add notes. All changes will be seen only by you. Learn more »
launch autoscroll
font size
0
reset
how to read this tab
guitar tuner
edit
Autoscroll
slow
fast
+/-
esc
set tempo
stop
Author
                                     The Unknown - Crossfade
-------------------------------------------------------------------------------
Tabbed by:BBsocold25
Email:Titanfan418@aol.com

Tuning:EADGBE
(strum) Repeat a couple times
E|------------|-----------------------------------------------|--------------|
B|------------|-----------------------------------------------|---5^-5-5-5-5-|
G|-0----------|----0--------0--------0------------------------|-7------------|
D|-5--2--2--4-|-------5--------5-----------4--------4---------|--------------|
A|-3--3--2--2-|-3--------3--------3-----------2--------2-----2|--------------|
E|-3--0--0--0-|-------------------------0--------0--------0---|--------------|

E|-------------------------------------------------------------------|
B|-(5)---5^---7^---5^--5h3---5^--5-5-5-5-(5)---5^--7^--5^--5-5-5h3---|
G|-----7-------------------4-----------------4---------------------4-|
D|-------------------------------------------------------------------|
A|-------------------------------------------------------------------|
E|-------------------------------------------------------------------|

It's short but beleive me it's the whole song.E-Mail me about this tab just to make sure im right.

===============================================================================

            
            
Suggest correction
Creating personal tab
Creating personal tab
You can edit any tab online and save it as your Personal.

You can edit, replace or remove any tab part or add personal notes – all changes will be seen only by you.

Personal tabs can be accessed anytime from any device, even offline.
Learn more »
comments
print report bad tab
4 comments total. Showing first comments.
0 reply
erik_f_graham 112 Nov 06, 2005 10:18 AM

Intro Chords are good, I'm not sure on the rest of the songs notes though

0 reply
uiop21 349 Apr 29, 2007 10:30 AM

The intro sounds right, but thats not what hes playing. He actually keeps the same power chords held for the verse/chorus.

|-----------------------
|-----------------------
|-----------------------
|5-5-5-55-x-4-44-4-44-4-
|3-3-3-33-x-2-22-2-22-2-
|-----------------------

0 reply
uiop21 349 May 08, 2007 02:03 PM

ok, for some strange reason my tab got rejected, so i'll post it here

standard tuning

e
B
G
D
A
E


Part I

Guitar 1:
(strummings off)
|-----------------------|
|-----------------------|
|-----------------------|
|5-5-5-5-5-x-5-4-4-44-44|
|3-3-3-3-3-x-3-2-2-22-22|
|-----------------------|

Guitar 2:

Find the timing

|-------|
|-------|
|-------|
|5-3-2--|
|3-2-2--|
|3-0-0--|

Part II

|-----------------------|
|-----------------------|
|-0--0-------0---0---0--|
|--5--5--5-4--4-4-4-4-4-|
|3--3--3-3-2---2---2---2|
|-----------------------|


Part III

|------------------|
|----0-------------|
|---5----------4---|
|--5--3-5-44--4-4--|
|-3-----3-22-2---2-|
|0----------0-----0|


Part IV (solo)

|-----------------------------------------------|
|3h5r-5br-5-5-5p3---5-3-5-5br-5-5-5p3---5-7-5br-|
|-----------------5-------------------5---------|
|-----------------------------------------------|
|-----------------------------------------------|
|-----------------------------------------------|


It goes:

Part I
Part II
Part III
Part IV
Part II
Part III
Part II
Part I

guest
You may want to rate the tab now too:
select rating
Wanna post a correction for this tab? Suggest correction