Oops, an error
Loading. Please wait.

Blue Tab

3,780 views 3 this week
no commentswrite comment
1 2 3 4 5
3 more votes to show rating
add to favorites
launch autoscroll
font size
0
reset
how to read this tab
guitar tuner
Autoscroll
slow
fast
+/-
esc
set tempo
stop
Help us to improve Ultimate-Guitar.com Take our survey!
×
Author
Difficulty
Tuning
advanced
C G C F A D
This is my first tab so let me know what you think! Email corrections or whatever to me
at jamieharris92@hotmail.co.uk

most of this is worked out from this cover:
http://www.youtube.com/watch?v=KaokL4-uiio&feature=related so he should get most of the 
credit, I just worked out what notes they
were & tuning, and changed some parts that didn't sound entirely correct.

Intro and Chorus

D |-----------------------------------------------------------|
A |-----------------------------------------------------------|
F |-------9/10--10--10-9-10--12b--12--12-12-14b--14--14-14-14-|
C |-----------------------------------------------------------|
G |-0~-0--7/-8---8---8-7--8--10b--10--10-10-12b--12--12-12-12-|or slide these last 2 notes
C |-0~-0------------------------------------------------------|rather than bend (or both)

D |-----------------------------------------------------------|
A |-----------------------------------------------------------|
F |-10-10-10-9-9-9-12-12-12-9-9-9--10-10-10-10----------------|
C |-----------------------------------------------------------|
G |--8--8--8-7-7-7-10-10-10-7-7-7---8--8--8--8----------------|
C |-----------------------------------------------------------|

D |-----------------------------------------------------------|
A |-----------------------------------------------------------|
F |-1010-9-9-7-7--12~-10~-9~-7--------------------------------|
C |-----------------------------------------------------------|
G |--8-8-7-7-5-5--10~--8~-7~-5--------------------------------|
C |-----------------------------------------------------------|  x2

first verse:

D |----------------------------------------------------------------------|
A |----------------------------------------------------------------------|
F |----------------------------------------------------------------------|
C |----------------------------------8-----8-----8---7---8---7-----------|
G |-8-----7-----10-----8-----7---8-------------------------------10------|
C |---0-0---0-0----0-0---0-0---0-------8-8---8-8---8---8---8---8----8----|
p.m.  . .   . .    . .   . .   .       . .   . .   .   .   .   .    .

D |----------------------------------------------------------------------|
A |----------------------------------------------------------------------|
F |----------------------------------------------------------------------|
C |--------------------------------------------------5h6p5---------------|
G |-8-----7-----10-----8-----7---8---8-----7-----8--------h8---7---5-----|
C |---7-7---7-7----7-7---7-7---7-------5-5---5-5---5---------5---5-------| not 100% accurate
p.m.  . .   . .    . .   . .   .       . .   . .   .         .   .

D |-----------------------------------------------------------------------------|
A |-----------------------------------------------------------------------------|
F |-----------------------------------------------------------------------------|
C |---------------------------------------12-----12-----12---10---12---10---8---|
G |-12-----10-----13-----12-----10---12-----------------------------------------|
C |----0-0----0-0----0-0----0-0----0---------8-8----8-8----8----8----8----8---8-|
p.m.   . .    . .    . .    . .    .         . .    . .    .    .    .    .   .

D |----------------------------------------------------------------|
A |----------------------------------------------------------------|
F |----------------------------------------------------------------|
C |-7------------8-----7----------7-----7-----5-----7--------------|
G |-------10-----------------10-------------------------10~10~8~7~-|
C |---7-7----7-7---7-7---7-7----7---7-----5-5---5-5---5-10~10~8~7~-|
p.m.  . .   . .    . .   . .   .    .     . .   . .   .


Breakdown #1:

D |-------------------------------------------------------------|
A |-----------------------9--9~---------------------9-9-9121212-|
F |----------------------12-12~--------------------121212151515-|
C |-------------------------------------------------------------|
G |-0--0----0-0-0-0----0-----------0--0----0-0-0----------------|
C |-0--0----0-0-0-0----0-----------0--0----0-0-0----------------|

D |-----------------------------------------------------------|
A |----------------------9--9~--------------------------------|
F |---------------------12-12~--------------------------------|
C |-----------------------------------------------------------|
G |-0-0----0-0-0-0----0-----------0-0----0-0-0-0--------------|
C |-0-0----0-0-0-0----0-----------0-0----0-0-0-0--------------| x2

Break interlude thing:

D |-----------------------------------------------------|
A |-----------------------------------------------------|
F |-----------7h8p7-------------------------------------|
C |----------------10-8-7h8p7---------------------------|
G |-888888710-----------------10-8-7h8p7-5h7p5-4--------|
C |-888888710-------------------------------------------|

D |----------------------------------------------------------------|
A |----------------------------------------------------------------|
F |---------------7h8p7--------------------------------------------|
C |--------------------10-8-7h8p7----------------------------------|
G |-----8---7---8----------------10------8---7---8-7h8p7-5h7p5-4~5-|
C |-0-0---0---0----------------------0-0---0---0-------------------|
p.m.. .   .   .                      . .   .   .

D |----------------------------------------------------------------------|
A |----------------------------------------------------------------------|
F |----------------------------------------------------------------------|
C |---------------7h8p7--------------------------------------------------|
G |-----8---7---8------10-8-7h8p7-5------8---7---8-----------------------|
C |-0-0---0---0----------------------0-0---0---0---8-7-8-10-10-8-10-12---| both bars x2
p.m.. .   .   .                      . .   .   .

Breakdown #2


D |--------------------------------------|
A |--------------------------------------|
F |--------------------------------------|
C |--------------------------------------|
G |-0-0--00-0-0-00-00-0-00-008~8~8~7~7~7-|                                         7
C |-0-0--00-0-0-00-00-0-00-008~8~8~7~7~7-| x2 (on the second bar, end on the first 7)

Intro & verse again, but on the last bar:

D |----------------------------------------------------------------|
A |----------------------------------------------------------------|
F |----------------------------------------------------------------|
C |-7------------8-----7----------7-----7-----5-----7---8~--7---5~-|
G |-------10-----------------10------------------------------------|
C |---7-7----7-7---7-7---7-7----7---7-----5-5---5-5---5---5---5----|
p.m.  . .   . .    . .   . .   .    .     . .   . .   .   .   .

second interlude break thingy:

D |----------------------------------------------------|
A |----------------------------------------------------|
F |----------------------------------------------------|
C |-------3/2------------------------3/2----5~--3---2~-|
G |-000-0-----3-1~-111-1/3-3-3-000-0-------------------|
C |-000-0----------111---------000-0-----00---0---0----| x4
p.m.... .     .    ...         ... .     ..   .   .

Breakdown #3

D |-------------------------------------------------------------------|
A |-------------------------------9~------------------------------12~-|
F |------------------------------12~------------------------------15~-|
C |-------------------------------------------------------------------|
G |-0~0~-00-00-00--0~0~-00-00-00-----0~0~-00-00-00--0~0~-00-00-00-----|
C |-0~0~-00-00-00--0~0~-00-00-00-----0~0~-00-00-00--0~0~-00-00-00-----| x2 (on the
second time, miss out the last attack note)

D |------|
A |------|
F |------|
C |---5~-|
G |-0----|
C |-0----| heavy p.m. & pinch harmonic
p.m..

Intro again and finish and let ring on open bottom strings
Suggest correction
Give kudos to tab author, rate the tab!
1 2 3 4 5
comments
print report bad tab
guest
You may want to rate the tab now too:
select rating
Wanna post a correction for this tab? Suggest correction