Oops, an error
Loading. Please wait.

Existence Is Punishment Tab

version 1
version 1

Whole song

Interactive

118 views 3 this week
no commentswrite comment
1 2 3 4 5
3 more votes to show rating
add to favorites
launch autoscroll
font size
0
reset
how to read this tab
guitar tuner
Autoscroll
slow
fast
+/-
esc
set tempo
stop
Help us to improve Ultimate-Guitar.com Take our survey!
×
Author
Difficulty
Tuning
novice
B F# B E G# C#
Band:  CROWBAR
Album: Crowbar
Song:  Existence Is Punishment

Tuning: 2.5 steps down

Keys:
 / \ - slide
 ___ - palm mute
  b  - bend
  r  - release bend


INTRO:
(Gtr 1)
|-----------------------------------|
|-----------------------------------|
|-----------------------------------|
|-2---------------------------------|
|-2----/7-7~--8~--------------------|
|-0---------------6~----6-6-5-/10~--|

(Gtr 2)
|----------------------------------|
|----------------------------------|
|----------------------------------|
|-2----/5-5~--6~-------------------|
|-2---------------5~----5-5-4-/9~--|
|-0--------------------------------| 4x


|----------------------------|     |---------------------------|
|----------------------------|     |---------------------------|
|----------------------------|     |---------------------------|
|-2----2-2--3--8----8-8-7-7\-|     |-2----2-2--3--8----8-8-7-7-|
|-2----2-2--3--8----8-8-7-5\-|     |-2----2-2--3--8----8-8-7-5-|
|-0----0-0--1--6----6-6-5-5\-| 3x  |-0----0-0--1--6----6-6-5-5-|

|----------------------------|
|----------------------------|
|----------------------------|
|-2----2-2--3--8----8-8-7-7\-|
|-2----2-2--3--8----8-8-7-5\-|
|-0----0-0--1--6----6-6-5-5\-| 4x


|-----------------------------------------------------------|
|-----------------------------------------------------------|
|-----------------------------------------------------------|
|-9/10---9----9/10---8----8\7-7-7-9-9-9-9--9-9--9-9-9-8/9---|
|-7/-8---9----7/-8---8----8\7-7-7-7-7-7-7--7-7--7-7-7-6/7---|
|------0-7--0------0-6--0-6\5-5-5-7-7-7-7--7-7--7-7-7-6/7-0-| 3x
       _    _      _    _         _______  ___  _____

|----------------------------------------------|
|----------------------------------------------|
|----------------------------------------------|
|-9/10---9----9/10---8----8\7-7-7-9-9-9-9--9-9-|
|-7/-8---9----7/-8---8----8\7-7-7-7-7-7-7--7-7-|
|------0-7--0------0-6--0-6\5-5-5-7-7-7-7--7-7-|
       _    _      _    _         _______  ___


|----------------------------|
|----------------------------|
|----------------------------|
|-2----2-2--3--8----8-8-7-7\-|
|-2----2-2--3--8----8-8-7-5\-|
|-0----0-0--1--6----6-6-5-5\-| 4x


|-----------------------------------------------------------|
|-----------------------------------------------------------|
|-----------------------------------------------------------|
|-9/10---9----9/10---8----8\7-7-7-9-9-9-9--9-9--9-9-9-8/9---|
|-7/-8---9----7/-8---8----8\7-7-7-7-7-7-7--7-7--7-7-7-6/7---|
|------0-7--0------0-6--0-6\5-5-5-7-7-7-7--7-7--7-7-7-6/7-0-| 3x
       _    _      _    _         _______  ___  _____

|---------------------------------------------------------------------|
|---------------------------------------------------------------------|
|---------------------------------------------------------------------|
|-9/10---9----9/10---8----8\7-7-7-9-9-9-9--9-9--9-9-9-----------------|
|-7/-8---9----7/-8---8----8\7-7-7-7-7-7-7--7-7--7-7-7-6---------------|
|------0-7--0------0-6--0-6\5-5-5-7-7-7-7--7-7--7-7-7-6-/10b-(11)--r--|
       _    _      _    _         _______  ___  _____


OUTRO:
(Gtr 1)
|----------------------------|
|----------------------------|
|----------------------------|
|-2----2-2--3--8----8-8-7-7\-|
|-2----2-2--3--8----8-8-7-5\-|
|-0----0-0--1--6----6-6-5-5\-|

(Gtr 2)
|-----------------------------------|
|-----------------------------------|
|-----------------------------------|
|-2---------------------------------|
|-2----/7-7~--8~--------------------|
|-0---------------6~----6-6-5-/10~--|

(Gtr 3)
|----------------------------------|
|----------------------------------|
|----------------------------------|
|-2----/5-5~--6~-------------------|
|-2---------------5~----5-5-4-/9~--|
|-0--------------------------------| 2x

 Gtr 2 & 3 play till fade out (intro)
Suggest correction
Give kudos to tab author, rate the tab!
1 2 3 4 5
comments
print report bad tab
guest
You may want to rate the tab now too:
select rating
Wanna post a correction for this tab? Suggest correction