Oops, an error
Loading. Please wait.

Falling While Rising Tab

103 views 18 this week
1 commentread comment
1 2 3 4 5
1 last vote to show rating
add to favorites
launch autoscroll
font size
0
reset
how to read this tab
guitar tuner
Autoscroll
slow
fast
+/-
esc
set tempo
stop
Help us to improve Ultimate-Guitar.com Take our survey!
×
Author
Difficulty
Tuning
novice
A E A D F# B
About this tab version
There might be some slight errors here and there, but for the most part it is right. Was this info helpful? Yes No
Tuning: 7 string Drop A, but you can play it in drop A on 6 string guitar.

| /  slide up
| \  slide down
| h  hammer-on
| p  pull-off
| ~  vibrato
| .  palm mute

Intro/Ourto:
e|------------------------------------------------------------------------------|
B|------------------------------------------------------------------------------|
G|------------------------------------------------------------------------------|
D|------------------------------------------------------------------------------|
A|----------------------------------------5-3-3---------------------------------|
E|0------------------------0--------------3-1-0---------------------------------|
A|0-7b8-~7-~3-~1-5b6-~6-~1-0-7b8-~7-~3-~1---------------------------------------|
~ is a very light vibrato                     !

Verse:
e|------------------------------------------------------------------------------|
B|------------------------------------------------------------------------------|
G|------------------------------------------------------------------------------|
D|------------------------------------------------------------------------------|
A|------------------------------------------------------------------------------|
E|----------------------------5h6p5h6p5-4h5p4h5p4-------------------8-7-8-0h3/10|
A|000-000-1p0-00-00-3h4-00-00---------------------000-000-5h6-00-00-8-7-8-0h3/10|
  ... ...     .. ..     .. ..                     ... ...     .. ..

Chorus:
e|------------------------------------------------------------------------------|
B|----0----------------------0--------------------------------------------------|
G|----2----------------------2--------------------------------------------------|
D|----2-3-/10\-3-------------2-3-/10\-3-----------------------------------------|
A|------1-/8\--1-5-8/~10-------1-/8\--1-5-3-------------------------------------|
E|0-0---1--------3-8/~10-0-0---1--------3-1-------------------------------------|
A|0-0---1----------------0-0---1------------------------------------------------|

This riff on a 6 string guitar:
 B|----0----------------------0-------------------------------------------------|
F#|----3----------------------3-------------------------------------------------|
 D|----2-3-/10\-3-------------2-3-/10\-3----------------------------------------|
 A|------1-/8\--1-5-8/~10-------1-/8\--1-5-3------------------------------------|
 E|0-0---1--------3-8/~10-0-0---1--------3-1------------------------------------|
 A|0-0---1----------------0-0---1-----------------------------------------------|

Bridge harmonised riff:
Left Guitar
e|------------------------------------------------------------------------------|
B|------------------------------------------------------------------------------|
G|------------------------------------------------------------------------------|
D|------------------------------------------------------------------------------|
A|------------------------------------------------------------------------------|
E|--12-12-10-10-10/13-13-12b---12-12-8-8-8/10\-7-7/~9---------------------------|
A|0--------------------------0--------------------------------------------------|

Right Guitar
e|------------------------------------------------------------------------------|
B|------------------------------------------------------------------------------|
G|------------------------------------------------------------------------------|
D|------------------------------------------------------------------------------|
A|------------------------------------------------------------------------------|
E|--/8-8-7-7-10-10-8b---/8-8-5-5-7\-1/~3----------------------------------------|
A|0------------------0----------------------------------------------------------|
Play this riff with one finger sliding between frets for more fluid sound.
Suggest correction
Give kudos to tab author, rate the tab!
1 2 3 4 5
comments
print report bad tab
1 comment total.
0 reply
fiskblack.fromrussia 10 Oct 31, 2016 07:51 AM

Thanks a lot

guest
You may want to rate the tab now too:
select rating
Wanna post a correction for this tab? Suggest correction