Oops, an error
Loading. Please wait.

I Have Failed Tab

55 views 3 this week
no commentswrite comment
1 2 3 4 5
3 more votes to show rating
add to favorites
launch autoscroll
font size
0
reset
how to read this tab
guitar tuner
Autoscroll
slow
fast
+/-
esc
set tempo
stop
Help us to improve Ultimate-Guitar.com Take our survey!
×
Author
Difficulty
Tuning
novice
B F# B E G# C#
Band:  CROWBAR
Album: Crowbar
Song:  I Have Failed

Tuning: 2.5 steps down

Keys:
 / \ - slide
 ___ - palm mute
  x  - mute
  b  - bend
  r  - release bend


RIFF A:
(fades in)
|------------------------|
|------------------------|
|------------------------|
|-5/7-7-7------5/7-------|
|-3/5-5-5------3/5-------|
|---------6~-------6~-5~-| 12x after drums kick in

the following is usually ringing for the first while in Riff A:

|------------------------|
|------------------------|
|------------------------|
|-(12)-------------------|
|------------------------|
|------------------------|


RIFF B:

|---------------------------------------------------------------|
|---------------------------------------------------------------|
|---------------------------------------------------------------|
|-5/7-7-7-7-5------------/10\8-8\-5/7-7-7-7-5------------8------|
|-3/5-5-5-5-3------------/-8\6-6\-3/5-5-5-5-3------------6------|
|-------------4~--3~--00----------------------4~--3~--00-6------| 4x
                      __                              __


RIFF A - 12x


FILL:

|------------------------------------------------------------------
|------------------------------------------------------------------
|------------------------------------------------------------------
|-5/7-7-7-7-5------------/10\8-8\-5/7-7-7-7-5------------8---------
|-3/5-5-5-5-3------------/-8\6-6\-3/5-5-5-5-3------------6---------
|-------------4~--3~--00----------------------4~--3~--00-6------00-
                      __                              __        __

 -----------------------------------------------------|
 -----------------------------------------------------|
 -----------------------------------------------------|
 -5/7-7-7-7-5------------/10\8-8\-5/7-7-7-7-5---------|
 -3/5-5-5-5-3------------/-8\6-6\-3/5-5-5-5-3---------|
 -------------4~--3~--00----------------------4~--3~--|
                      __


RIFF C:

|-----------------------------------------------------------|
|-----------------------------------------------------------|
|-----------------------------------------------------------|
|-xx-5/7--7-7--5/7--7/8-7-------xx-5/7--7-7--5/7--8---------|
|-xx-3/5--5-5--3/5--5/6-5-------xx-3/5--5-5--3/5--6---------|
|-xx------5-5--------------1br~-xx------5-5-------6-6~--5~--| 4x


OUTRO:

|---------------------------------------------------------------|     |-----|
|---------------------------------------------------------------|     |-----|
|---------------------------------------------------------------|     |-----|
|-5/7-7-7-7-5------------/10\8-8\-5/7-7-7-7-5------------8------|     |-5/7-|
|-3/5-5-5-5-3------------/-8\6-6\-3/5-5-5-5-3------------6------|     |-3/5-|
|-------------4~--3~--00----------------------4~--3~--00-6------| 2x  |-----|
                      __                              __
Suggest correction
Give kudos to tab author, rate the tab!
1 2 3 4 5
comments
print report bad tab
guest
You may want to rate the tab now too:
select rating
Wanna post a correction for this tab? Suggest correction