Oops, an error
Loading. Please wait.

Distant Sun Bass Tab

version 1
version 1

Whole song

Interactive

1,550 views 3 this week
2 commentsread comments
1 2 3 4 5
accurate
x 3
add to favorites
launch autoscroll
font size
0
reset
guitar tuner
Autoscroll
slow
fast
+/-
esc
set tempo
stop
Help us to improve Ultimate-Guitar.com Take our survey!
×
Author
-------------------------------------------------------------------------------
                             DISTANT SUN - Crowded House
-------------------------------------------------------------------------------

Tabbed By : Andrew Hart
e-mail: andrewhart1110@gmail.com

Tuning: Standard (EADG)

First Verse
G|------------0--3--|-1----1--1-----3--|------------0--3--|-1----1--1-----3--|
D|-1----1--1--------|------------------|-1----1--1--------|------------------|
A|------------------|------------------|------------------|------------------|
E|------------------|------------------|------------------|------------------|

G|-5-----5--5----5--|-2-----2--2----2--|-1-----1--1----3--|-0L----0--0--0--0-|
D|------------------|------------------|------------------|------------------|
A|------------------|------------------|------------------|------------------|
E|------------------|------------------|------------------|------------------|

G|------------0--3--|-1----1--1-----3--|------------0--3--|-1----1--1-----3--|
D|-1----1--1--------|------------------|-1----1--1--------|------------------|
A|------------------|------------------|------------------|------------------|
E|------------------|------------------|------------------|------------------|

G|-5-----5--5----5--|-2-----2--2----2--|-1-----1--1-------|------------------|
D|------------------|------------------|---------------1--|-6--6--6--5--3--1-|
A|------------------|------------------|------------------|------------------|
E|------------------|------------------|------------------|------------------|

First Chorus
G|-3----3--3--5--8--|-10--10-10-8------|----------3----3--|-8----8-----5--8--|
D|------------------|-------------10-8-|-6-----6----------|---------8--------|
A|------------------|------------------|------------------|------------------|
E|------------------|------------------|------------------|------------------|

G|------------5--8--|-10---------------|----------3----3--|-8-----8--8-----8-|
D|-8----8--8--------|------------------|-6-----6----------|-------------8----|
A|------------------|-------8--8---10--|------------------|------------------|
E|------------------|------------------|------------------|------------------|

G|-13----13------13-|--15L----15L------|-15-13-11-13-11---|
D|----------13------|------------------|----------------13|
A|------------------|------------------|------------------|
E|------------------|------------------|------------------|

Second Verse
G|------------0--3--|-1----1--1-----3--|------------0--3--|-1----1--1-----3--|
D|-1----1--1--------|------------------|-1----1--1--------|------------------|
A|------------------|------------------|------------------|------------------|
E|------------------|------------------|------------------|------------------|

G|-5-----5--5----5--|-2-----2--2----2--|-1-----1--1----3--|-0L----0--0--0--0-|
D|------------------|------------------|------------------|------------------|
A|------------------|------------------|------------------|------------------|
E|------------------|------------------|------------------|------------------|

G|------------0--3--|-1----1--1-----3--|------------0--3--|-1----1--1-----3--|
D|-1----1--1--------|------------------|-1----1--1--------|------------------|
A|------------------|------------------|------------------|------------------|
E|------------------|------------------|------------------|------------------|

G|-5-----5--5----5--|-2-----2--2----2--|-1---1--1---------|
D|------------------|------------------|----------5--3--1-|
A|------------------|------------------|------------------|
E|------------------|------------------|------------------|

Second Chorus
G|-3----3--3--5--8--|-10--10-10-8------|----------3----3--|-8----8-----5--8--|
D|------------------|-------------10-8-|-6-----6----------|---------8--------|
A|------------------|------------------|------------------|------------------|
E|------------------|------------------|------------------|------------------|

G|------------5--8--|-10---------------|----------3----3--|-8-----8--8-----8-|
D|-8----8--8--------|------------------|-6-----6----------|-------------8----|
A|------------------|-------8--8---10--|------------------|------------------|
E|------------------|------------------|------------------|------------------|

G|-----------5--8---|-10---------------|----------3----3--|
D|-8----8--8--------|------------------|-6-----6----------|
A|------------------|-------8--8---10--|------------------|
E|------------------|------------------|------------------|

Middle Eight
G|-5---5---3--5--3--|-1---1--1--1--3--3|-5---5---3--5--3--|-1---1--1--1--3--3|
D|---5---5---------3|---1---1----------|---5---5---------3|---1---1----------|
A|------------------|------------------|------------------|------------------|
E|------------------|------------------|------------------|------------------|

G|-5---5---3--5--3--|-1--1--1--1--3--3-|
D|---5---5---------3|--1---1-----------|
A|------------------|------------------|
E|------------------|------------------|

Guitar Break
G|-3----3--3--5--8--|-10---10-10-8-----|---------3----3---|-8-----8-----5--8-|
D|------------------|--------------10-8|-6----6-----------|----------8-------|
A|------------------|------------------|------------------|------------------|
E|------------------|------------------|------------------|------------------|

G|------------5--8--|-10---------------|---------3----3---|-8----8--8-----8--|
D|-8----8--8--------|------------------|-6----6-----------|------------8-----|
A|------------------|------8--8----10--|------------------|------------------|
E|------------------|------------------|------------------|------------------|

Final Chorus
G|--3----3--3--5--8-|--10--10-10-8-----|----------3-----3-|--8----8---5--8---|
D|------------------|--------------10-8|--6----6----------|---------8--------|
A|------------------|------------------|------------------|------------------|
E|------------------|------------------|------------------|------------------|

G|-------------5--8-|--10--------------|----------3-----3-|
D|--8----8--8-------|------------------|--6----6----------|
A|------------------|--------8--8---10-|------------------|
E|------------------|------------------|------------------|

End Part ("As time goes by..."). 
G|--8----8--8-----8-|------------------|------------------|------------------|
D|-------------8----|------------------|--6----6--6-----6-|--6----6--6-----6-|
A|------------------|--10---10-10---10-|------------------|------------------|
E|------------------|------------------|------------------|------------------|

Repeat these 8 bars as necessary
G|------------------|------------------|------------------|------------------|
D|------------------|------------------|--6----6--6-----6-|--6-----6--6----6-|
A|--6----6--6-----6-|--10---10-10---10-|------------------|------------------|
E|------------------|------------------|------------------|------------------|

G|------------------|------------------|------------------|------------------|
D|--10---10-10---10-|------------------|--6----6--6-----6-|--6-----6--6----6-|
A|------------------|--10---10-10---10-|------------------|------------------|
E|------------------|------------------|------------------|------------------|


| /  slide up
| \  slide down
| h  hammer-on
| p  pull-off
| ~  vibrato
| +  harmonic
| x  Mute note
===============================================================================
Suggest correction
Give kudos to tab author, rate the tab!
1 2 3 4 5
comments
print report bad tab
2 comments total.
0 reply
Andsome 82 wrote on March 11 2012, 04:22 pm

I've just correct a line which was a semitone out (how my band plays it).

Curious about the 1 star rating though!

0 reply
WibbleWobble 1,814 wrote on February 16 2014, 04:48 am

Sounds alright to me but there's always some w****r out there I guess

guest
You may want to rate the tab now too:
select rating
Please do not post tabs as comments. Select "correction" instead!