Oops, an error
Loading. Please wait.

Dont Dream Its Over solo tab

version 1
version 1

Solo

Whole song

Interactive

2,965 views 42 this week
1 commentread comment
1 2 3 4 5
2 more votes to show rating
add to favorites
×
Save as Personal and add changes to this tab that will be seen only by you. Learn more ›
×
You can save this tab as Personal to edit and correct it or add notes. All changes will be seen only by you. Learn more »
launch autoscroll
font size
0
reset
how to read this tab
guitar tuner
backing track
0:00
0:00
edit
Autoscroll
slow
fast
+/-
esc
set tempo
stop
Author
-------------------------------------------------------------------------------
                             Don't Dream It's Over - Crowded House
-------------------------------------------------------------------------------
Hey guys, my first tab, so please rate. 
I looked for this solo everywhere on the internet and couldn't find it.
I finally figured out the main solo, the rest is pretty much up to each and one I think
There are some bends here and there, I think you can figure 'em out.

Tuning: Standard

e|---------------------------------------------------------------------------|
B|---------------11----------------------------------------------------------|
G|---9/12-----10----8--7-12-----7-8-10----7----------------------------------|
D|--------------------------10---------------10--9---------------------------|
A|---------------------------------------------------------------------------|
E|---------------------------------------------------------------------------|

e|---------------------------------------------------------------------------|
B|---------------11----13-----15---16-15-13-11-9----15-----------------------|
G|----9/12----10----12--------------------------12---------------------------|
D|---------------------------------------------------------------------------|
A|---------------------------------------------------------------------------|
E|---------------------------------------------------------------------------|


************************************

| /   slide up
| \   slide down
| h   hammer-on
| p   pull-off
| ~   vibrato
| +   harmonic
| x   Mute note
| b   Bend
| pb  Pre-bend
| br  Bend release
| pbr Pre-bend release
| brb Bend release bend

************************************

            
            
Suggest correction
Creating personal tab
Creating personal tab
You can edit any tab online and save it as your Personal.

You can edit, replace or remove any tab part or add personal notes – all changes will be seen only by you.

Personal tabs can be accessed anytime from any device, even offline.
Learn more »
Give kudos to tab author, rate the tab!
1 2 3 4 5
comments
print report bad tab
1 comment total.
0 reply
mwilkes19 10 Apr 19, 2017 04:34 PM

👍

guest
You may want to rate the tab now too:
select rating
Wanna post a correction for this tab? Suggest correction