Oops, an error
Loading. Please wait.

Dont Dream Its Over Tab

version 2
version 2

Whole song

Interactive

44,331 views 93 this week
2 commentsread comments
1 2 3 4 5
x 11
add to favorites
launch autoscroll
font size
0
reset
how to read this tab
guitar tuner
Autoscroll
slow
fast
+/-
esc
set tempo
stop
Help us to improve Ultimate-Guitar.com Take our survey!
×
Author
Difficulty
novice
Song Title: Dont Dream Its Over Chords
By        : Crowded House

[Intro]

   Ebsus2                               G#
e|--------6--------6---------6----------------|
B|--------6--------6---------6-----------9----|
G|---------------------------------------8----| (2x)
D|---8------8--8------8--8------8--8----------|
A|---6------6--6------6--6------6--6----------|
E|--------------------------------------------|


[Verse 1]
      (Do INTRO strumming pattern)

Ebsus2                  Csus2
There is freedom within, there is freedom without

G#                                G     .G#.G#
Try to catch the deluge in a paper cup

Ebsus2                 Csus2
There's a battle ahead, many battles are lost

G#
But you'll never see the end of the road

             G
While you're traveling with me

[Chorus]

G#       Bb
Hey now, hey now

Ebsus2           Csus2
Don't dream it's over

G#       Bb
Hey now, hey now

          Ebsus2     Csus2
When the world comes in

G#         Bb
They come, they come

Ebsus2           Csus2
To build a wall between us

G#                     G#-Bb
We know they won't win


[Verse 2]
(Do first verse strumming pattern)


Now I'm towing my car, there's a hole in the roof
My possessions are causing me suspicion but there's no proof
In the paper today tales of war and of waste
But you turn right over to the T.V. page


REPEAT :
[Chorus]

[Solo]
        Keyboard.. First.. Try also in guitar...
       (CHORUS Chords)

e|---------------------------------------------------|
B|-------------------11--------------------8---------|
G|--10---------10---------8----------7----------5----|
D|---------------------------------------------------|
A|---------------------------------------------------|
E|---------------------------------------------------|

e|---------------------------------------|
B|---------------------------------------|
G|--7--8-----10----7---------5-----3-----|
D|---------------------------------------|
A|---------------------------------------|
E|---------------------------------------|

e|-----------------------------------------------------------------|
B|----------------11----8---13-------15--15/16--15--13--11---------|
G|---10------10----------------------------------------------13----|
D|-----------------------------------------------------------------|
A|-----------------------------------------------------------------|
E|-----------------------------------------------------------------|

                               Guitar Part..
e|----------------------------|-------------------|
B|----------15--13--11--------|-------------------|
G|-12-------------------13--12|7/--/--/--/19------|
D|----------------------------|-------------------|
A|----------------------------|-------------------|
E|----------------------------|-------------------|

e|----------6-------------3-------------6--------------------------|
B|----------6--9----------4-------------6---9--------8/9--6--------|
G|-------8-----8---8--8--------------8------8--8-------------8--5--|
D|----8------------8--8-----------8---------------8----------------|
A|-6---------------6--6--------6-----------------------------------|
E|-----------------------------------------------------------------|

e|----------6-------------3---------------------------------|
B|----------6--9----------4---------------------6/--8--9----|
G|-------8-----8---8--8--------------8-------7--------------|
D|----8------------8--8-----------8-----8-------------------|
A|-6---------------6--6-------6-----------------------------|
E|----------------------------------------------------------|

e|----------------------------------------------------------|
B|----------------------6/-8--9~-----11/--13~---11~~--------|
G|------------5/-7--8---------------------------------------|
D|-8/-10\-8-------------------------------------------------|
A|----------------------------------------------------------|
E|----------------------------------------------------------|


[Verse 3]
(same as verse 1)

Now I'm walking again to the beat of a drum
And I'm counting the steps to the door of your heart
Only shadows ahead barely clearing the roof
Get to know the feeling of liberation and relief


[Chorus]

G#       Bb
Hey now, hey now
Ebsus2           Csus2
Don't dream it's over
G#       Bb
Hey now, hey now
         Ebsus2      Csus2
When the world comes in
G#         Bb
They come, they come
Ebsus2           Csus2
To build a wall between us
G#
Don't ever let them win


[Outro]
(Play CHORUS Chords)


e|-------------------------------------------------------|
B|--13--11----------------------11-----------------------|(Repeat
G|-----------13--12--10----8--------13--12--10--8----7---|(many times
D|-------------------------------------------------------|(Until its Fades..
A|-------------------------------------------------------|(Out.....
E|-------------------------------------------------------|


************************************

| /  Slide up
| ~  Vibrato
| \  Slide down

************************************
Suggest correction
comments
print report bad tab
2 comments total.
0 reply
sguitar 882 Apr 24, 2009 01:58 PM

keyboard solo starts with 12

0 reply
joantereva 10 Sep 12, 2014 03:57 AM

Thx for the tabs, good job :)

guest
You may want to rate the tab now too:
select rating
Wanna post a correction for this tab? Suggest correction