Oops, an error
Loading. Please wait.

Four Seasons In One Day Bass Tab

3,900 views 1 this week
1 commentread comment
1 2 3 4 5
1 last vote to show rating
add to favorites
launch autoscroll
font size
0
reset
guitar tuner
Autoscroll
slow
fast
+/-
esc
set tempo
stop
Help us to improve Ultimate-Guitar.com Take our survey!
×
Author
-------------------------------------------------------------------------------
		    FOUR SEASONS IN ONE DAY - Crowded House
-------------------------------------------------------------------------------

Tabbed By : Daniel S. / Madkat

This version is tabbed off the album version from "Woodface". Nick Seymour is
notorious for improvising the entire song live, and all the live versions I
have heard are very different.

               x10
G||-------------||-------------------|------------|-------------|-------------|
D||*-----------*||-------------------|------------|-------------|-------------|
A||*-----------*||--12\--11--9-h-11--|------------|-------------|-------------|
E||-------------||-------------------|--0------0--|--2-------2--|--3-------3--|

G||-----------|-------------------|---------------|------------|-------------|
D||-----------|-------------------|---------------|------------|-------------|
A||-----------|--12-/-14--12-\-9--|-----9-----9\\-|--3---------|--3--3-------|
E||--5--------|-------------------|---------------|---------3--|----------3--|

G||------------|-------------|------------|--------------|-----------|
D||------------|-------------|------------|--------------|-----------|
A||--2---------|--2--2----2--|--3---------|--3--3--------|--2--------|
E||---------2--|-------------|---------3--|----------3\\-|-----------|

G||-------------|------------|--------------|-----------|-------------|
D||-------------|------------|--------------|-----------|--2----4-\\--|
A||--2--2-------|------------|--2-----------|--5--------|-------------|
E||----------3--|--5------5--|-----5--3--5--|-----------|-------------|

G||------------|---------------||---------------|--------------|--------------|
D||--5---------|--3-/-6--4-\\--||*--------------|--------------|--------------|
A||------------|---------------||*--------------|--------------|--------------|
E||------------|---------------||---0--------0--|--2--------2--|--3--------3--|

G||------------|-------------------|--------------||------------|-------------|
D||------------|-------------------|-------------*||------------|-------------|
A||------------|--12-/-14--12-\-9--|----9--\-----*||--3---------|--3--3-------|
E||--5--5------|-------------------|--------------||---------3--|----------3--|

G||-------------|---------------|------------|-------------|-----------|
D||-------------|---------------|------------|-------------|-----------|
A||--2----2--2--|---2---2----2--|--3---------|--x--3-------|--2--------|
E||-------------|---------------|---------3--|----------3--|-----------|

G||-------------|--------|-------------|------------|-------------|-----------|
D||-------------|--------|-------------|------------|-------------|-----------|
A||-----2----2--|--0-----|--2--0----0--|--2----2----|--2--2-------|--3---3----|
E||--2----------|--------|-------------|------------|----------3--|-----------|

G||--------------|-----------|----------------|------------|------------|
D||--0-----2-----|--0--------|--2----2-/-(4)--|--5---------|------------|
A||-----x-----x--|-----------|----------------|------------|------------|
E||--------------|-----------|----------------|---------3--|--5----6----|

G||------------|---------------|------------|---------------|-------------|
D||------------|---------------|--5---------|-----5----3h-5-|--------2----|
A||--3---------|-----3----1h-3-|---------5--|---------------|--5----------|
E||---------3--|---------------|------------|---------------|-------------|

G||---------------|------------|-------------|------------|---------------|
D||---------7--\\-|------------|-------------|------------|---------------|
A||--7h-9---------|------------|-------------|--3---------|-----3----1h-3-|
E||---------------|--0------3--|-----5\------|---------3--|---------------|

G||------------|------------------|-----------|---------|---------|---------|
D||------------|------------------|-----------|---------|---------|---------|
A||--5------3--|--5-/-8--10-/-11--|-----------|---------|---------|---------|
E||------------|------------------|--5--------|---------|---------|---------|

G||--------------|--------------|--------------|-------------|--2-/-4--2-----|
D||--------------|--------------|--------------|-------------|---------------|
A||--------------|--------------|--------------|--0----------|---------------|
E||--0--------0--|--2--------2--|--3--------3--|-------------|------------5--|

G||--------------|-------------|-----------|-------------|-------------------|
D||--------------|--1----------|--2--------|--4-------4--|--(5)--------(5)\\-|
A||--3--------3--|-----2-------|-----------|-------------|-------------------|
E||--------------|-------------|-----------|-------------|-------------------|

G||-----------|-------------------|------------|--------------|--------------|
D||-----------|-------------------|------------|--------------|--------------|
A||-----------|--12--14--12-\-10--|------------|--------------|--------------|
E||--5--------|-------------------|--0------0--|--2--------2--|--3--------3--|

G||------------|-----------------|--------------|-------------|-------------|
D||------------|-----------------|--------------|-------------|-------------|
A||------------|--13--------14-h-|-13---11------|--3----------|--3--3-------|
E||--5---------|-----------------|--------------|----------3--|----------3--|

G||-----------|-------------|-------------|-------------|------------|
D||-----------|-------------|-------------|-------------|-------2----|
A||--2--------|-----2-------|--3----------|--3--3----4--|--5---------|
E||-----------|----------2--|----------3--|-------------|------------|

G||-------2---------|--0-----------|--------------|-------------|------------|
D||--2h-4----4\\----|--------------|--------------|-------------|------------|
A||-----------------|--------------|--------------|--3----------|-----3------|
E||-----------------|-----------0--|--3--4--5-----|----------3--|------------|

G||-------------|-------------|-------------|----------------|-------------|
D||--5----------|-----5-------|--------2----|--2h-4-5--------|-------------|
A||----------5--|-------------|--5----------|----------7\\---|--0----------|
E||-------------|-------------|-------------|----------------|----------1--|

G||--------------|-------------|-------------|--------------|--------------|
D||--------------|-------------|-------------|--5--------5h-|--7--5--3--5--|
A||--------0--2--|--3----------|-----3----3--|--------------|--------------|
E||--2--3--------|----------3--|-------------|--------------|--------------|

G||-----------||
D||-----------||
A||--5--------||
E||-----------||

| /  slide up
| \  slide down
| h  hammer-on
| p  pull-off
| ~  vibrato
| +  harmonic
| x  Mute note
===============================================================================
Suggest correction
Give kudos to tab author, rate the tab!
1 2 3 4 5
comments
print report bad tab
1 comment total.
0 reply
madkat 144 Apr 17, 2007 07:17 AM

Forgot to note the entire song is tabbed in 2/4, if you care

guest
You may want to rate the tab now too:
select rating
Wanna post a correction for this tab? Suggest correction