Oops, an error
Loading. Please wait.

I Walk Away Tab

566 views 1 this week
no commentswrite comment
1 2 3 4 5
3 more votes to show rating
add to favorites
launch autoscroll
font size
0
reset
how to read this tab
guitar tuner
Autoscroll
slow
fast
+/-
esc
set tempo
stop
Help us to improve Ultimate-Guitar.com Take our survey!
×
-------------------------------------------------------------------------------
                             I Walk Away - Crowded House
-------------------------------------------------------------------------------
Tabbed by: John Grunwell
Email: mahajohnathotmaildotcom

Tuning: E A D G B E 

(palm mute throughout the phrase, but accent chords 
by momentarily relaxing the mute)
e|-------------------------------------------------|
B|--3-----3--------------------------------------3-|
G|--2-----0--------------------------------------4-|
D|--0—-0--0--0—-0--0--0--0--0--0--0--0--0--0--0--4-|
A|-----------------------------------------------2-|
E|-------------------------------------------------|

(the muted B on the A string should barely register as a pitch, just the 
clicking of a pick against taught metal)
e|------------------------------------------------------------------|
B|----------------------------3--2--------------------------2-----3-|
G|----------------------------4--2--------------------------2--2--2-|
D|----------------------------4--2--------------------------2--2--0-|
A|--- X(2)--X(2)--X(2)--X(2)--2--0--0--0--0--0--0--0--0--0--0--0----|
E|------------------------------------------------------------------|

(the 2nd and 3rd go around [with the vocals] repeat this progression, 
but the final phrase ends like this...) 
e|------------------------------------|
B|----------------------------3(p)-2--|
G|------------------------------------|
D|------------------------------------|
A|----0--0--0--0--0--0--0--0----------|
E|------------------------------------|
Suggest correction
Give kudos to tab author, rate the tab!
1 2 3 4 5
comments
print report bad tab
guest
You may want to rate the tab now too:
select rating
Wanna post a correction for this tab? Suggest correction