Oops, an error
Loading. Please wait.

Never Be The Same Tab

1,114 views 3 this week
no commentswrite comment
1 2 3 4 5
please rate
add to favorites
launch autoscroll
font size
0
reset
how to read this tab
guitar tuner
Tab Pro tools
  • play this tab
  • loop segment
  • change instrument
  • show fretboard
  • metronome
×
Best way to learn
"Never Be The Same"
Autoscroll
slow
fast
+/-
esc
set tempo
stop
#----------------------------------PLEASE NOTE---------------------------------#
#This file is the author's own work and represents their interpretation of the #
#song. You may only use this file for private study, scholarship, or research. #
#------------------------------------------------------------------------------##
Never Be the Same
(N. Finn)


INTRO:  C   G   C   G   C   G   C    F   Am   G

D2*   Dm*  Am* G        D2      Dm Am  G
don't stand around like friends at a funeral
D2   Dm Am  G
eyes to the ground
   Am                  Am/G*
it could have been you
D2  Dm Am  G
why do you weep
       D2  Dm  Am  G
for the passing of ages
D2                Dm     Am
you slip with the back of your hand
       G
you're taking it out on the one you love
D2  Dm  A    G
I couldn't believe it

F                           C
but we might still survive
    G                   Am    Am/G#*   Am/G
and rise up through the maze
   F                           C
if you could change your life
G                Am
and never be the same


--------------------------|---------------||
-5--5--6--6--8--8--10--10-|-5--5--6--6--8-||
--------------------------|---------------||
--------------------------|---------------||
--------------------------|---------------||
--------------------------|---------------||

how long must I wait
for you to release me
I pay for each mistake
while you suffer in silence
I could still have an easy life
but the life ain't worth living
     C                    D
once more will i hear you say

we might still survive
and rise up through the maze
if you could change your life
    G            F        Am    F     D
and never be the same


[Instr. break on G]

D2           G
don't stand around
     D2           G
like friends at a funeral
D2  Dm  Am  G
eyes to the ground
      Am                Am/G
don't suffer in silence

       F                      C
'cause we might still survive
    G                   Am
and rise up through the maze
   F                          C
if you could change your life
    G            Am
and never be the same
     F               C
everytime I hear you
G            Am
never be the same
         F              C
and everytime I mess up
G
never be the same

Chords under guitar solo (to end of song):

F   C   G   D   F   C   G  [<-- Stay on G for rest of song]

TAB FOR SOLO:


---------|------0----|---------|-------------|---------|---------|
---1--1--|---1-------|---0--1--|-------------|---1--1--|---0--1--|
---------|--------0--|---------|----7----7---|---------|---0--0--|
-3-------|-2---------|-3-------|-4----4----4-|-3-------|-2-------|
---------|-----------|---------|-------------|---------|---------|
---------|-----------|---------|-------------|---------|---------|

-------------------|-1>>>>>10-----10----10--------------------|
-------------------|-3>>>>>12--12----12-----------------------|
-------------------|-----------------------12--10---------10--|
-------------------|-------------------------------10-12------|
-------------------|------------------------------------------|
-3--(7)--(7)--(7)--|------------------------------------------|
 ^^^^^^^^^^^^^^^^

--------|----------------------|---------------------------------|
--------|----------------------|---------------------------------|
------4-|--(5)^4---(5)^4--2-0--|----(5)^4-------(5)^4------(5)^4-| G chord
-3-5----|----------------------|---------------------------------|
--------|----------------------|---------------------------------|
--------|----------------------|-3-------------------------------|
                                 ^^^^^^^^^^^^^^^^^^^^^^^^^^^^^^^^

* UNUSUAL CHORDS

D2    X57755
Dm    X57765
Am    577555
Am/G  302210


(Transcription by Marck Bailey)
comments
We did not receive enough feedback on this tab! Please rate:
print report bad tab
1 2 3 4 5
I want to post or [tab]
guest
You may want to rate the tab now too:
select rating
Please do not post tabs as comments. Select "correction" instead!