Oops, an error
Loading. Please wait.

Lift Your Head Weary Sinner Chains Tab

version 1
version 1

Intro

Whole song

58 views 1 this week
no commentswrite comment
1 2 3 4 5
3 more votes to show rating
add to favorites
launch autoscroll
font size
0
reset
how to read this tab
guitar tuner
Autoscroll
slow
fast
+/-
esc
set tempo
stop
Help us to improve Ultimate-Guitar.com Take our survey!
×
[Intro]
    3         4       
e|--0----0-------------------------------------------|
B|--3/5--3-------------------------------------------|
G|----------2b4r2--0---------------------------------| 
D|--------------------3------------------------------|
A|---------------------------------------------------|
E|---------------------------------------------------|

[Beats]
  1      2      3    4    1    2       3     4
e|---------------------------------------------------|
B|---------------------------------------------------|
G|---------------------------------------------------| 
D|--------------5------------------------------------|
A|----5--7--5-----7--5--7---5--7--5------------------|
E|-0----------7-----------0--------7---5--3--3--5----|

e|---------------------------------------------------|
B|---------------------------------------------------|
G|---------------------------------------------------| 
D|--------------5------------------------------------|
A|----5--7--5-----7--5--7---5--7--5------------------|
E|------------7-----------0--------7---5--3--0-------|



************************************

| r  Release
| b  Bend
| /  Slide up

************************************
Suggest correction
Give kudos to tab author, rate the tab!
1 2 3 4 5
comments
print report bad tab
guest
You may want to rate the tab now too:
select rating
Wanna post a correction for this tab? Suggest correction