Oops, an error
Loading. Please wait.

Lift Your Head Weary Sinner intro tab

version 1
version 1

Intro

Whole song

by Crowder
7,942 views 48 this week
2 commentsread comments
1 2 3 4 5
x 12
add to favorites
×
Save as Personal and add changes to this tab that will be seen only by you. Learn more ›
×
You can save this tab as Personal to edit and correct it or add notes. All changes will be seen only by you. Learn more »
launch autoscroll
font size
0
reset
how to read this tab
guitar tuner
edit
Autoscroll
slow
fast
+/-
esc
set tempo
stop
Author
Difficulty
intermediate
Lift Your Head Weary Sinner - Crowder
Tabbed by: Danfist
E-mail: dkoval526@yahoo.com
Tuning: Standard

This riff applies to the intro and verse. The top portion is played one time and then the next portion
is played subsequently twice as the intro. The bottom piece is them played four more times as the verse.

e|--0-0--0-------------------------------------------------------------------|
B|--3/5--5-3p0---------------------------------------------------------------|
G|--2/4--4-----0-------------------------------------------------------------|
D|---------------------------------------------------------------------------|
A|---------------------------------------------------------------------------|
E|---------------------------------------------------------------------------|

e|---------------------------------------------------------------------------|
B|---------------------------------------------------------------------------|
G|---------------------------------------------------------------------------| /x 6
D|--------------5------------------------------------------------------------|
A|----5--7--5-----7---5h7-7---5-7--5p0---------------------------------------|
E|-0----------0-----0-------0-----------3-3/5--------------------------------|

************************************

| /   slide up
| \   slide down
| h   hammer-on
| p   pull-off

************************************
Suggest correction
Creating personal tab
Creating personal tab
You can edit any tab online and save it as your Personal.

You can edit, replace or remove any tab part or add personal notes – all changes will be seen only by you.

Personal tabs can be accessed anytime from any device, even offline.
Learn more »
comments
print report bad tab
2 comments total.
+1 reply
rainsdraper 32 Aug 19, 2015 05:28 PM

You got the very first part right, but the rest is wrong.

guest
You may want to rate the tab now too:
select rating
Wanna post a correction for this tab? Suggest correction