Oops, an error
Loading. Please wait.

D Minor Nine Bass Tab

240 views 1 this week
no commentswrite comment
1 2 3 4 5
please rate
add to favorites
launch autoscroll
font size
0
reset
guitar tuner
Autoscroll
slow
fast
+/-
esc
set tempo
stop
Help us to improve Ultimate-Guitar.com Take our survey!
×
Author
Crown City Rockers - D Minor Nine
an amazing hiphop/jazz/soul BAND next to The Roots

here's the basic riff throughout the song:

G|-----7/9--5--7-------|
D|---7------------5--7-|
A|-5-------------------|
E|---------------------|

G|-----7/9--5--7-------|
D|---7-----------------|
A|-5-------------------|
E|---------------------|

G|-----7/9--5--7-------|
D|---7------------5--7-|
A|-5-------------------|
E|---------------------|

G|-----7/9-------------|
D|---7-----7--10-------|
A|-5-------------------|
E|---------------------|
Suggest correction
Give kudos to tab author, rate the tab!
1 2 3 4 5
comments
print report bad tab
guest
You may want to rate the tab now too:
select rating
Please do not post tabs as comments. Select "correction" instead!