Oops, an error
Loading. Please wait.

Bloodline Bass Tab

version 1
version 1

Whole song

Interactive

94 views 9 this week
no commentswrite comment
1 2 3 4 5
3 more votes to show rating
add to favorites
launch autoscroll
font size
0
reset
guitar tuner
Autoscroll
slow
fast
+/-
esc
set tempo
stop
Help us to improve Ultimate-Guitar.com Take our survey!
×
Author
Difficulty
Tuning
intermediate
A# F A# D# G C
Most of the notes are sixteenth notes, so heads up.

Intro (starts when David says "Rise")

D#|---------------------------------------------------------------------------------|
A#|---------------------------------------------------------------------------------|
F |---------------------------------------------------------------------------------|
A#|-1p0-0-0-1p0-0-0---0-1p0-1p0-0-0---0-1p0-1p0-0-0-0-0-4h5-0-0-1p0-4h5-0-0-1p0-0-0-|

D#|---------------------------------------------------------------------------------|
A#|---------------------------------------------------------------------------------|
F |---------------------------------------------------------------------------------|
A#|---0-1p0-1p0-0-0-1p0-0-0-3p0-0-0-4h5-0-5p4-0-1---1p0-0-0-1p0-0-0---0-1p0-1p0-0-0-|

D#|---------------------------------------------------------------------------------|
A#|---------------------------------------------------------------------------------|
F |---------------------------------------------------------------------------------|
A#|---0-1p0-1p0-0-0-0-0-4h5-0-0-1p0-4h5-0-0-1p0-0-0---0-1p0-1p0-0-0-7h8-0-8p7-0-4h5-|

D#|---------------------------------------------------------------------------------|
A#|---------------------------------------------------------------------------------|
F |---------------------------------------------------------------------------------|
A#|-8-8-8-8-7---0-------------------------------------------------------------------|

First Verse

D#|---------------------------------------------------------------------------------|
A#|---------------------------------------------------------------------------------|
F |3-5-5-5-5-5-5-5-5-5-5-5-5-5-5-5-6-5-5-5-5-5-5-5-----------------3-5-5-5-5-5-5-5--|
A#|------------------------------------------------6-6-6-5-5-5-3-3------------------|

D#|---------------------------------------------------------------------------------|
A#|---------------------------------------------------------------------------------|
F |-5-5-5-5-5-5-5-5---------------------------------3-5-5-5-5-5-5-5-5-5-5-5-5-5-5-5-|
A#|-----------------6---0-5---0-3---3-5-5-3-5-5-3-5---------------------------------|

D#|---------------------------------------------------------------------------------|
A#|---------------------------------------------------------------------------------|
F |-6-5-5-5-5-5-5-5-----------------3-5-5-5-5-5-5-5-5-5-5-5-5-5-5-5-5-5---5-5---5-5-|
A#|-----------------6-6-6-5-5-5-3-3-------------------------------------------------|

D#|---------------------------------------------------------------------------------|
A#|---------------------------------------------------------------------------------|
F |-5-------------------------------------------------------------------------------|
A#|--------1---0-0-0-0-0---0---0-0--0-4---1---0-0-0-0-0---5---0-4---0-1---1---0-0-0-|

D#|---------------------------------------------------------------------------------|
A#|---------------------------------------------------------------------------------|
F |---------------------------------------------------------------------------------|
A#|-0-0---0---0-0---0-0---5---0-4---0-1---4---0-0---0-0---1---0-0-0-0-0---0---0-0---|

D#|---------------------------------------------------------------------------------|
A#|---------------------------------------------------------------------------------|
F |---------------------------------------------------------------------------------|
A#|-0-4---1---0-0-0-0-0---5---0-4---0-1---1---0-0-0-0-0---0-1-1-0-1-4-----1-1-0-1-4-|

D#|---------------------------------------------------------------------------------|
A#|---------------------------------------------------------------------------------|
F |---------------------------------------------------------------------------------|
A#|-1-4-----5-----7-----------------------------------------------------------------|

Pre-Chorus

D#|---------------------------------------------------------------------------------|
A#|---------------------------------------------------------------------------------|
F |---------------------------------------------------------------------------------|
A#|-8~--------------------------------5~--------------------------------------------|


Chorus

D#|---------------------------------------------------------------------------------|
A#|---------------------------------------------------------------------------------|
F |---------------------------------------------------------------------------------|
A#|-0-----0---8-----8---5-------------------------------------5-----5---8-----8---7-|
                           "The creatures that you've hunted"
D#|---------------------------------------------------------------------------------|
A#|---------------------------------------------------------------------------------|
F |---------------------------------------------------------------------------------|
A#|------------------------------------0-----0---8-----8---5------------------------|
   "The ghosts of hope you've killed"                         "We're taking back tomorrow"

D#|---------------------------------------------------------------------------------|
A#|---------------------------------------------------------------------------------|
F |---------------------------------------------------------------------------------|
A#|-5-----5---8-----8---7-----------------------------------------------------------|
                           "Become the cog and crown"

Post-Chorus

D#|---------------------------------------------------------------------------------|
A#|---------------------------------------------------------------------------------|
F |---------------------------------------------------------------------------------|
A#|-1p0-0-0-1p0-0-0---0-1p0-1p0-0-0---0-1p0-1p0-0-0-0-0-4h5-0-0-1p0-4h5-0-0-1p0-0-0-|

D#|---------------------------------------------------------------------------------|
A#|---------------------------------------------------------------------------------|
F |---------------------------------------------------------------------------------|
A#|---0-1p0-1p0-0-0-1p0-0-0-3p0-0-0-4h5-0-5p4-0-1---1p0-0-0-1p0-0-0---0-1p0-1p0-0-0-|

D#|---------------------------------------------------------------------------------|
A#|---------------------------------------------------------------------------------|
F |---------------------------------------------------------------------------------|
A#|---0-1p0-1p0-0-0-0-0-4h5-0-0-1p0-4h5-0-0-1p0-0-0---0-1p0-1p0-0-0-7h8-0-8p7-0-4h5-|

D#|---------------------------------------------------------------------------------|
A#|---------------------------------------------------------------------------------|
F |---------------------------------------------------------------------------------|
A#|-8-8-8-8-7-----------------------------------------------------------------------|

Second Verse

D#|---------------------------------------------------------------------------------|
A#|---------------------------------------------------------------------------------|
F |-3-5-5-5-5-5-5-5-5-5-5-5-5-5-5-5-6-5-5-5-5-5-5-5-----------------3-5-5-5-5-5-5-5-|
A#|-------------------------------------------------6-6-6-5-5-5-3-3-----------------|

D#|---------------------------------------------------------------------------------|
A#|---------------------------------------------------------------------------------|
F |-5-5-5-5-5-5-5-5---------------------------------3-5-5-5-5-5-5-5-6-5-5-5-3-5-5-5-|
A#|-----------------6---0-5---0-3---3-5-5-3-5-5-3-5---------------------------------|

D#|---------------------------------------------------------------------------------|
A#|---------------------------------------------------------------------------------|
F |-----------------------------------3-5-5-5-5-5-5-5-6-5-5-5-3-5-5-5---------------|
A#|-0-0---0---0---0---0-0---0---0-0-0-----------------------------------------------|

Bridge

D#|---------------------------------------------------------------------------------|
A#|---------------------------------------------------------------------------------|
F |---------------------------------------------------------------------------------|
A#|-0~-(let it ring, then rest until breakdown)-------------------------------------|


Breakdown (2:45)

D#|---------------------------------------------------------------------------------|
A#|---------------------------------------------------------------------------------| x4
F |---------------------------------------------------------------------------------|
A#|-7-5---8---7--------------------------------7-5-7-8---7--------------------------|

D#|---------------------------------------------------------------------------------|
A#|---------------------------------------------------------------------------------|
F |---------------------------------------------------------------------------------|
A#|-7-7-5-7-8-7-5-7-7-7-5-7-8-7-5-7-7-7-5-7-8-7-5-7/12-12-12-11-11-11-8-8-7-7-5-7-8-|

D#|---------------------------------------------------------------------------------|
A#|---------------------------------------------------------------------------------|
F |---------------------------------------------------------------------------------|
A#|-7-5-7-7-7-5-7-8-7-5-7-8-7-5-7-8-7-5-7-4-4-4-5-5-5-7-7-7-7-5-7-8-7-5-7-7-7-5-7-8-|

D#|---------------------------------------------------------------------------------|
A#|---------------------------------------------------------------------------------|
F |---------------------------------------------------------------------------------|
A#|-7-5-7-7-7-5-7-8-7-5-7/12-12-12-11-11-11-8-8-7-7-5-7-8-7-5-7-7-7-5-7-8-7-5-7-7---|

D#|---------------------------------------------------------------------------------|
A#|---------------------------------------------------------------------------------|
F |---------------------------------------------------------------------------------|
A#|-5----7----8-----11--------------------------------------------------------------|

Chorus

D#|---------------------------------------------------------------------------------|
A#|---------------------------------------------------------------------------------|
F |---------------------------------------------------------------------------------|
A#|-------0---8-----8---5-------------------------------------5-----5---8-----8---7-|
                           "The creatures that you've hunted"
D#|---------------------------------------------------------------------------------|
A#|---------------------------------------------------------------------------------|
F |---------------------------------------------------------------------------------|
A#|------------------------------------0-----0---8-----8---5------------------------|
   "The ghosts of hope you've killed"                         "We're taking back tomorrow"

D#|---------------------------------------------------------------------------------|
A#|---------------------------------------------------------------------------------|
F |---------------------------------------------------------------------------------|
A#|-5-----5---8-----8---7-----------------------------------------------------------|
                           "Become the cog and crown"

D#|---------------------------------------------------------------------------------|
A#|---------------------------------------------------------------------------------|
F |---------------------------------------------------------------------------------|
A#|-0-----0---8-----8---5-------------------------------------5-----5---8-----8---7-|
                           "The creatures that you've hunted"
D#|---------------------------------------------------------------------------------|
A#|---------------------------------------------------------------------------------|
F |---------------------------------------------------------------------------------|
A#|------------------------------------0-----0---8-----8---5------------------------|
   "The ghosts of hope you've killed"                         "We're taking back tomorrow"

D#|---------------------------------------------------------------------------------|
A#|---------------------------------------------------------------------------------|
F |---------------------------------------------------------------------------------|
A#|-5-----5---8-----8---7-----------------------------------------------------------|
                           "Become the cog and--"

Outro (comes in at about 4:00)

D#|---------------------------------------------------------------------------------|
A#|---------------------------------------------------------------------------------|
F |---------------------------------------------------------------------------------|
A#|-1p0-0-0-1p0-0-0---0-1p0-1p0-0-0---0-1p0-1p0-0-0-0-0-4h5-0-0-1p0-4h5-0-0-1p0-0-0-|

D#|---------------------------------------------------------------------------------|
A#|---------------------------------------------------------------------------------|
F |---------------------------------------------------------------------------------|
A#|---0-1p0-1p0-0-0---------------------------1p0-0-0---0-1p0-1p0-0-0---0-1p0-1p0-0-|
                    "Become the cog and--"
D#|---------------------------------------------------------------------------------|
A#|---------------------------------------------------------------------------------|
F |---------------------------------------------------------------------------------|
A#|-0-0-0-4h5-0-0-1p0-4h5-0-0-1p0-0-0---0-1p0-1p0-0-0-7h8-0-8p7-0-4h5-8-8-8-8-7-x---|

********************
| / slide up
| h hammer-on
| p pull-off
| ~ vibrato
| x dead note
********************
Suggest correction
Give kudos to tab author, rate the tab!
1 2 3 4 5
comments
print report bad tab
guest
You may want to rate the tab now too:
select rating
Wanna post a correction for this tab? Suggest correction