Oops, an error
Loading. Please wait.

Hologram Bass Tab

361 views 21 this week
no commentswrite comment
1 2 3 4 5
1 last vote to show rating
add to favorites
launch autoscroll
font size
0
reset
guitar tuner
Autoscroll
slow
fast
+/-
esc
set tempo
stop
Help us to improve Ultimate-Guitar.com Take our survey!
×
Author
Difficulty
Tuning
novice
C G C F A D
Crown the Empire - Hologram

Tabbed by: Ash (XxThreeCheersxX)
email: burdickash@gmail.com

Tuning: Drop C (C G C F)

Verse I (come in at "When the walls begin to shake")
F|--------------------------------------------------------------------------------|
C|--------------------------------------------------------------------------------|
G|-7~---------5~------------------3~--------7~------------------3~----------------|
C|----------------------5~----------------------------5~--------------------------|

Chorus
F|-----------------------------------------------------------------|
C|-----------------------------------------------------------------|
G|-7-7-7-7-7-7-7-7-7-7-7-7-5-5-5-5-3-3-3-3-3-3-3-3-3-3-3-3-0-0-0-0-|
C|-----------------------------------------------------------------|

F|-----------------------------------------------------------------|
C|-----------------------------------------------------------------|
G|-7-7-7-7-7-7-7-7-7-7-7-7-5-5-5-5-3-3-3-3-3-3-3-3-0-0-5-5-2-2-7-7-|
C|-----------------------------------------------------------------|

Post-Chorus
F|--------------------------------------|
C|-----2-2------2--------2-2-------2----|
G|--------------------------------------|
C|-2-2--------2------2-2--------2-------|

Verse II
F|-------------------------------------------------------------|
C|-------------------------------------------------------------|
G|-------------------------------------------------------------| x 2
C|-2-2-2-2-2-2-0-2-2-0-2-2-2-2-0-2-2-0-2-2-2-2-5-5-5-5-7-7-7-7-|

F|-----------------------------------------------------------------|
C|-----------------------------------------------------------------|
G|-5-5-5-5-5-5-5-5-3-3-3-3-3-3-3-3-----------------1-1-1-1-1-1-1-1-|
C|---------------------------------1-1-1-1-1-1-1-1-----------------|

F|-----------------------------------------------------------------|
C|-----------------------------------------------------------------|
G|-5-5-5-5-5-5-5-5-----------------1-1-1-1-1-1-1-1-1-1-1-1-1-1-1-1-|
C|-----------------1-1-1-1-1-1-1-1---------------------------------|

Chorus x 2

Bridge (come in with the spoken words)
F|-----------------------------------------------------------------|
C|-5-5-5-5-5-5-5-5-5-5-5-5-5-5-5-5-4-4-4-4-4-4-4-4-4-4-4-4-4-4-4-4-|
G|-----------------------------------------------------------------|
C|-----------------------------------------------------------------|
                                                                            x 2
F|-----------------------------------------------------------------|
C|-2-2-2-2-2-2-2-2-2-2-2-2-2-2-2-2-1-1-1-1-1-1-1-1-1-1-1-1-1-1-1-1-|
G|-----------------------------------------------------------------|
C|-----------------------------------------------------------------|

F|-----------------------------------------------------------------|
C|-----------------------------------------------------------------|
G|-3-3-3-3-3-3-3-3-0-0-0-0---------3-3-3-3-3-3-3-3-----------------|
C|-------------------------2-2-2-2-----------------2-2-2-2-5-5-5-5-|

F|---------------------------------------------------------|
C|---------------------------------------------------------|
G|-3-3-3-3-3-3-3-3-0-0-0-0-2-2-2-2-3-3-3-3-3-3-3-3-0-0-0-0-|
C|---------------------------------------------------------|

Final Chorus
F|-----------------------------------------------------------|
C|-----------------------------------------------------------|
G|-7-7-7--7-7-7--7-7-7--5-5-5-5-3-3-3--3-3-3--3-3-3--0-0-0-0-|
C|-----------------------------------------------------------|

F|------------------------------------------------------------|
C|------------------------------------------------------------|
G|-7-7-7--7-7-7--7-7-7--5-5-5-5-3-3-3--3-3-3--0-0-5-5-2-2-7-7-|
C|------------------------------------------------------------|

F|-----------------------------------------------------------------|
C|-----------------------------------------------------------------|
G|-7-7-7-7-7-7-7-7-7-7-7-7-5-5-5-5-3-3-3-3-3-3-3-3-3-3-3-3-0-0-0-0-|
C|-----------------------------------------------------------------|

F|-----------------------------------------------------------------|
C|-----------------------------------------------------------------|
G|-7-7-7-7-7-7-7-7-7-7-7-7-5-5-5-5-3-3-3-3-3-3-3-3-0-0-5-5-2-2-7-7-|
C|-----------------------------------------------------------------|

F|------------------------------------------------------------|
C|------------------------------------------------------------|
G|-7-7-5-7--7-7--7-7-5-7--7-5-5-3-3-2-3--3-3--3-3-3-3-0-0-0-0-|
C|------------------------------------------------------------|

F|------------------------------------------------------------|
C|------------------------------------------------------------|
G|-7-7-5-7--7-7--7-7-5-7--7-5-5-3-3-2-3--3-3--0-0-5-5-2-2-7-7-|
C|------------------------------------------------------------|

Happy playing!

************************************

| x   Dead note
| g   Grace note
| (n) Ghost note
| h   Hammer-on
| p   Pull-off
| r   Release
| >   Accented note
| t   Tapping
| b   Bend
| br  Bend release
| pb  Pre-bend
| pbr Pre-bend release
| /   Slide up
| \   Slide down
| ~   Vibrato
| s   Slap
| P   Pop
| PM  Palm mute
| TR  Trill
| N   Tremolo

************************************
Suggest correction
Give kudos to tab author, rate the tab!
1 2 3 4 5
comments
print report bad tab
guest
You may want to rate the tab now too:
select rating
Wanna post a correction for this tab? Suggest correction