Oops, an error
Loading. Please wait.

Makeshift Chemistry tab

version 3
version 3

Whole song

Interactive

46 views 1 this week
no commentswrite comment
1 2 3 4 5
3 more votes to show rating
add to favorites
×
Save as Personal and add changes to this tab that will be seen only by you. Learn more ›
×
You can save this tab as Personal to edit and correct it or add notes. All changes will be seen only by you. Learn more »
launch autoscroll
font size
0
reset
how to read this tab
guitar tuner
edit
Autoscroll
slow
fast
+/-
esc
set tempo
stop
[Intro Riff]
D|---------------------------------------------------------------------------|
A|---------------------------------------------------------------------------|
F|---------------------------------------------------------------------------|
C|---------------------------------------------------------------------------|
G|---------------------------------------------------------------------------|
C|-0000-000-12-000--000-5555--555-8888-2222----------------------------------|

D|---------------------------------------------------------------------------|
A|---------------------------------------------------------------------------|
F|---------------------------------------------------------------------------|
C|---------------------------------------------------------------------------|
G|----------------------44444444---------------------------------------------|
C|-0000-000-12-000--000------------------------------------------------------|

[Verse 1 Riff]
D|---------------------------------------------------------------------------|
A|---------------------------------------------------------------------------|
F|---------------------------------------------------------------------------|
C|---------------------------------------------------------------------------|
G|---------------------------------------------------------------------------|
C|-0000-000-12-000--000-5555--555-8888-2222----------------------------------|

D|---------------------------------------------------------------------------|
A|---------------------------------------------------------------------------|
F|---------------------------------------------------------------------------|
C|---------------------------------------------------------------------------|
G|----------------------44444444---------------------------------------------|
C|-0000-000-12-000--000----------8888-5555-----------------------------------|

(end the verse like this)
D|---------------------------------------------------------------------------|
A|---------------------------------------------------------------------------|
F|---------------------------------------------------------------------------|
C|---------------------------------------------------------------------------|
G|---------------------------------------------------------------------------|
C|-0000-000-12-000--000--5555-7777-8888-11-11-11-11--------------------------|

[Pre-Chorus]
D|---------------------------------------------------------------------------|
A|-----11--------------------------11---------------------------5------------|
F|--------10---------------------------10-----------------------6------------|
C|-8-----------8--0----3---------8----------8--------------------------------|
G|-8--------------0----3---------8-------------------------------------------|
C|-8--------------0----3---------8---------------77777777777777--------------|

[Chorus]
D|---------------------------------------------------------------------------|
A|---------------------------------------------------------------------------|
F|---------------------------------------------------------------------------|
C|-0-0-0-0-0-0-0-0--7-7-7-7-7-7-7--77-8-8-8-8-8-8-8-8--5-5-5-5-5-5-5-x-x-----|
G|-0-0-0-0-0-0-0-0--7-7-7-7-7-7-7--77-8-8-8-8-8-8-8-8--5-5-5-5-5-5-5-x-x-----|
C|-0-0-0-0-0-0-0-0--7-7-7-7-7-7-7--77-8-8-8-8-8-8-8-8--5-5-5-5-5-5-5-x-x-----|

D|---------------------------------------------------------------------------|
A|---------------------------------------------------------------------------|
F|---------------------------------------------------------------------------|
C|-0-0-0-0-0-0-0-0--7-7-7-7-7-7-7--77-8-8-8-8-8-8-8-8--8-8-8-8----11-11-11---|
G|-0-0-0-0-0-0-0-0--7-7-7-7-7-7-7--77-8-8-8-8-8-8-8-8--8-8-8-8----11-11-11---|
C|-0-0-0-0-0-0-0-0--7-7-7-7-7-7-7--77-8-8-8-8-8-8-8-8--8-8-8-8----11-11-11---|

[Post-Chorus]
D|---------------------------------------------------------------------------|
A|---------------------------------------------------------------------------|
F|---------------------------------------------------------------------------|
C|---------------------------------------------------------------------------|
G|---------------------------------------------------------------------------|
C|-0000--0000----------------------------------------------------------------|

[Verse 1 Riff]
D|---------------------------------------------------------------------------|
A|---------------------------------------------------------------------------|
F|---------------------------------------------------------------------------|
C|---------------------------------------------------------------------------|
G|---------------------------------------------------------------------------|
C|-0000-000-12-000--000-5555--555-8888-2222----------------------------------|

D|---------------------------------------------------------------------------|
A|---------------------------------------------------------------------------|
F|---------------------------------------------------------------------------|
C|---------------------------------------------------------------------------|
G|----------------------44444444---------------------------------------------|
C|-0000-000-12-000--000----------8888-5555-----------------------------------|

(end the verse like this)
D|---------------------------------------------------------------------------|
A|---------------------------------------------------------------------------|
F|---------------------------------------------------------------------------|
C|---------------------------------------------------------------------------|
G|---------------------------------------------------------------------------|
C|-0000-000-12-000--000--5555-7777-8888-11-11-11-11--------------------------|

[Lead Verse 2]
D|---------------------------------------------------------------------------|
A|---------5*----------------------------------------------------------------|
F|-9*------5*----------------------------------------------------------------|
C|-9*----------0-0-7-0-5-0-3-0-2h3-0-0-2h3--x2-0-0-8-0-7-0-5-0-3h5-0-0-3h5-x2|
G|---------------------------------------------------------------------------|
C|---------------------------------------------------------------------------|

*natural harmonics 
D|---------------------------------------------------------------------------|
A|---------------------------------------------------------------------------|
F|---------------------------------------------------------------------------|
C|-------------8-0-7-0-5-0-3-0-x4--------------------------------------------|
G|---------------------------------------------------------------------------|
C|---------------------------------------------------------------------------|

[Rhythm Verse 2]
D|---------------------------------------------------------------------------|
A|---------------------------------------------------------------------------|
F|---------------------------------------------------------------------------|
C|-0--------------------0000-0--0-0----00000-0--0-0----11--8--11-------------|
G|-0--------------------0000-0--0-0----00000-0--0-0----12--8--12-------------|
C|-0--------pickslide---0000-0--0-0----00000-0--0-0----11--8--11-------------|
                                      (this pattern)-for these chords^

[Pre-Chorus]
D|---------------------------------------------------------------------------|
A|-----11--------------------------11---------------------------5------------|
F|--------10---------------------------10-----------------------6------------|
C|-8-----------8--0----3---------8----------8--------------------------------|
G|-8--------------0----3---------8-------------------------------------------|
C|-8--------------0----3---------8---------------77777777777777--------------|

[Chorus]
D|---------------------------------------------------------------------------|
A|---------------------------------------------------------------------------|
F|---------------------------------------------------------------------------|
C|-0-0-0-0-0-0-0-0--7-7-7-7-7-7-7--77-8-8-8-8-8-8-8-8--5-5-5-5-5-5-5-x-x-----|
G|-0-0-0-0-0-0-0-0--7-7-7-7-7-7-7--77-8-8-8-8-8-8-8-8--5-5-5-5-5-5-5-x-x-----|
C|-0-0-0-0-0-0-0-0--7-7-7-7-7-7-7--77-8-8-8-8-8-8-8-8--5-5-5-5-5-5-5-x-x-----|

D|---------------------------------------------------------------------------|
A|---------------------------------------------------------------------------|
F|---------------------------------------------------------------------------|
C|-0-0-0-0-0-0-0-0--7-7-7-7-7-7-7--77-8-8-8-8-8-8-8-8--8-8-8-8----11-11-11---|
G|-0-0-0-0-0-0-0-0--7-7-7-7-7-7-7--77-8-8-8-8-8-8-8-8--8-8-8-8----11-11-11---|
C|-0-0-0-0-0-0-0-0--7-7-7-7-7-7-7--77-8-8-8-8-8-8-8-8--8-8-8-8----11-11-11---|

[Bridge]
D|-------------0-0-----------------------------------------------------------|
A|------5------6-5-----------------------------------------------------------|
F|------7------7-6-----------------------------------------------------------|
C|-0-----------------8---11-----000-0-00-------------------------------------|
G|-0-----------------8---12-----000-0-00--x4spaced out, then 4x in a row-----|
C|-0-----------------8---11-----000-0-00-------------------------------------|

I dont give a Fuck!

D|---------------------------------------------------------------------------|
A|---------------------------------------------------------------------------|
F|---------------------------------------------------------------------------|
C|---------------------------------------------------------------------2*ph--|
G|----------------------8---7---------------------------------------4--------|
C|-00-00--12/--00---00----0---0-----88888--88(11)(11)(11)(11)(11)--0-0-------|

D|---------------------------------------------------------------------------|
A|---------------------------------------------------------------------------|
F|------------------666666666------------------------------------------------|
C|---------------------------------------------------------------------------|
G|------------------444444444------------------------------------------------|
C|--8887775588877755---------------------------------------------------------|

[Chorus]
D|---------------------------------------------------------------------------|
A|---------------------------------------------------------------------------|
F|---------------------------------------------------------------------------|
C|-0-0-0-0-0-0-0-0--7-7-7-7-7-7-7--77-8-8-8-8-8-8-8-8--5-5-5-5-5-5-5-x-x-----|
G|-0-0-0-0-0-0-0-0--7-7-7-7-7-7-7--77-8-8-8-8-8-8-8-8--5-5-5-5-5-5-5-x-x-----|
C|-0-0-0-0-0-0-0-0--7-7-7-7-7-7-7--77-8-8-8-8-8-8-8-8--5-5-5-5-5-5-5-x-x-----|

D|---------------------------------------------------------------------------|
A|---------------------------------------------------------------------------|
F|---------------------------------------------------------------------------|
C|-0-0-0-0-0-0-0-0--7-7-7-7-7-7-7--77-8-8-8-8-8-8-8-8--8-8-8-8----11-11-11---|
G|-0-0-0-0-0-0-0-0--7-7-7-7-7-7-7--77-8-8-8-8-8-8-8-8--8-8-8-8----11-11-11---|
C|-0-0-0-0-0-0-0-0--7-7-7-7-7-7-7--77-8-8-8-8-8-8-8-8--8-8-8-8----11-11-11---|


************************************

| x    Dead note
| *    Natural harmonic
| h    Hammer-on
| (n)  Ghost note
| /    Slide up

************************************

            
            
Suggest correction
Creating personal tab
Creating personal tab
You can edit any tab online and save it as your Personal.

You can edit, replace or remove any tab part or add personal notes – all changes will be seen only by you.

Personal tabs can be accessed anytime from any device, even offline.
Learn more »
Give kudos to tab author, rate the tab!
1 2 3 4 5
comments
print report bad tab
guest
You may want to rate the tab now too:
select rating
Wanna post a correction for this tab? Suggest correction