Oops, an error
Loading. Please wait.

Dont Wanna Go Bass Tab

66 views 1 this week
no commentswrite comment
1 2 3 4 5
3 more votes to show rating
add to favorites
launch autoscroll
font size
0
reset
guitar tuner
×
Best way to learn
"Dont Wanna Go"
Autoscroll
slow
fast
+/-
esc
set tempo
stop
Author
Crowned King --- www.crownedking.com

Don't Wanna Go Bass Tab

Standard Tuning ( EADG )

~~ = let ring
/ = slide up

Intro:(x2)
G-------------------------------------------—555555--|
D----------------------------------------------------|
A--------4(x16)----------7(x16)--------2x2x2---------|
E--2(x16)--------------------------------------------|

Verse:(x2)
G------------------|
D------------------|
A—------2/4/5/7--—-|
E--2~~-------------|

Chorus:(x2)
G-------------------------------------------—--------|
D----------------------------------------------------|
A--------4(x16)----------7(x16)--------2(x16)--------|
E--2(x16)--------------------------------------------|

Verse:(x2)
G------------------|
D------------------|
A—------2/4/5/7--—-|
E--2~~-------------|

Chorus:(x2)
G-------------------------------------------—--------|
D----------------------------------------------------|
A--------4(x16)----------7(x16)--------2(x16)--------|
E--2(x16)--------------------------------------------|

Fill:
G-----------------------------------|
D-----------------------------------|
A----2--------------2----22---------|
E-222-2222222222-222-2222-----------|
Mess around with it

Bridge: Don't play anything!

Chorus:(x2)
G-------------------------------------------—--------|
D----------------------------------------------------|
A--------4(x16)----------7(x16)--------2(x16)--------|
E--2(x16)--------------------------------------------|

Fill:
G-----------------------------------|
D-----------------------------------|
A----2--------------2----22---------|
E-222-2222222222-222-2222-----------|
Suggest correction
Give kudos to tab author, rate the tab!
1 2 3 4 5
comments
print report bad tab
guest
You may want to rate the tab now too:
select rating
Wanna post a correction for this tab? Suggest correction