Oops, an error
Loading. Please wait.

You And I ukulele

by Crsb
5,029 views 105 this week
no commentswrite comment
1 2 3 4 5
x 4
add to favorites
×
Save as Personal and add changes to this tab that will be seen only by you. Learn more ›
×
You can save this tab as Personal to edit and correct it or add notes. All changes will be seen only by you. Learn more »
launch autoscroll
font size
0
reset
transpose
0
reset
simplify chords
display chords
guitar tuner
edit
Autoscroll
slow
fast
+/-
esc
set tempo
stop
Author
Strumming
There is no strumming pattern for this song yet. and get +5 IQ
[chords]

A chord
Bm9 chord
Dmaj7 chord
Bm7 chord

strum pattern
DU c UD UDU c UDU


[Intro]  x4
(picking, ukulele 1)

a|-------0---------------0-----------------2---------------2---------------|
e|---0-4---4-0---0---0-4---4-0---0-----2-5---5-2---2---2-5---5-2---2-------|
c|-1-----------1---1-----------1-----2-----------2---2-----------2---------|
g|-------------------------------------------------------------------------|
 

[Intro]
(picking, ukulele 2)

a|-2--4--4/5--5/7--7--5--4--2--2--4--4/5--5/7--5--4--2--2--2/4--2/4--4--2--|
e|-------------------------------------------------------------------------|
c|-------------------------------------------------------------------------|
g|-------------------------------------------------------------------------|

a|-7/9--7--5--4--2--2/4--7/9--7--5--5/7--5/7--12--11--7--5--4--2--2/4--4---|
e|-------------------------------------------------------------------------|
c|-------------------------------------------------------------------------|
g|-------------------------------------------------------------------------|

a|-12--11--7/9--7--5--5/7--5--4--2-----------------------------------------|
e|-------------------------------------------------------------------------|
c|-------------------------------------------------------------------------|
g|-------------------------------------------------------------------------|


[Intro 2]
(strum)

A,Bm9,Dmaj7,Bm7 x2


[Verse 1]

A                     Bm9
When I look at you
                    Dmaj7                   Bm7
Everything it seems okay
A                         Bm9
But when I turn my head
                      Dmaj7                     Bm7
All those feelings go away
A                            Bm9
And when you're next to me
                      Dmaj7    Bm7
Its so hard for me to breathe (So hard for me to breathe)
A                           Bm9
and I can't stand the fact
                            Dmaj7          Bm7
that maybe one day you will leave


[Chorus]

Oh but I
A             
shouldn't have to say I love you baby
Bm9
You should already know
Dmaj7
But I'm gonna say it anyway
Bm7
Cuz I dont wanna let you go (Don't wanna let you go)
A
I wanna give you my heart
Bm9
And I wanna give you this
Dmaj7
I wanna give you all my hugs
Bm7
And every single kiss
A
Cuz I wanna be your man baby
Bm9
I wanna keep you as my lady
Dmaj7
Cuz livin' without you Oh
Bm7
Its drivin' me crazy 
A              Bm9
Yea
Dmaj7                        Dmaj7
And I don't know what to do (I don't know what to do)


[Verse 2]

A                          Bm9
Cuz when you're not around
                   Dmaj7
I swear I'm losin' sleep
Bm7
I never understand
A                     Bm9
Cuz honestly with me 
                      Dmaj7    Bm7
Is where you ought to be          (Oh babe)
A               Bm9
So baby take my hand
                   Dmaj7     Bm7
Trust in me you'll see   (You'll see)
A                       Bm9
Now what I have for you
                        Dmaj7     Bm7
Is why God made you for me


[Chorus]

Oh but I 
A             
shouldn't have to say I love you baby
Bm9
You should already know
Dmaj7
But I'm gonna say it anyways
Bm7
Cuz I dont wanna let you go (Don't wanna let you go)
A
I wanna give you my heart
Bm9
And I wanna give you this
Dmaj7
I wanna give you all my hugs
Bm7
And every single kiss
A
Cuz I wanna be your man baby
Bm9
I wanna keep you as my lady
Dmaj7
Cuz livin' without you Oh
Bm7
Its drivin' me crazy 
A              Bm9
Yea
                         Dmaj7   Bm7
And I don't know what to do


[Outro]

A           
I wanna be your man my baby
Bm9
I wanna keep you as my lady
Dmaj7
Cuz livin' without you Oh
Bm7
Its drivin' me crazy
A            Bm9
Yea
                         Dmaj7    Bm7
And I don't know what to do
A
oh



************************************

| /  Slide up 

************************************

            
            
Suggest correction
Creating personal tab
Creating personal tab
You can edit any tab online and save it as your Personal.

You can edit, replace or remove any tab part or add personal notes – all changes will be seen only by you.

Personal tabs can be accessed anytime from any device, even offline.
Learn more »
comments
print report bad tab
guest
You may want to rate the tab now too:
select rating
Wanna post a correction for this tab? Suggest correction