Oops, an error
Loading. Please wait.

All Over Bass

49 views 1 this week
no commentswrite comment
1 2 3 4 5
3 more votes to show rating
add to favorites
launch autoscroll
font size
0
reset
guitar tuner
×
Best way to learn
"All Over"
Autoscroll
slow
fast
+/-
esc
set tempo
stop
Author
Difficulty
  follow
novice
About this tab version
This is the only accurate bass tab for this current song. Was this info helpful? Yes No
tabbed by:Angela Hanton
tuning: Standard


[Intro]

G|------------------------------------|
D|------------------------------------|
A|------------------------------------|
E|-5-5---5-5--0-0--0-2-0-2---2-2--0-0-|

x2

[Verse]

G|------------------------------------|
D|------------------------------------|
A|------------------------------------|
E|-5-5---5-5--0-0--0-2-0-2---2-2--0-0-|

x4

[Chorus]

G|------------------2-2-2--2----------|
D|--------4-4-4--4-----------4-4-4--4-|
A|-5-5--5-----------------------------|
E|------------------------------------|

x2


[Intro]

G|------------------------------------|
D|------------------------------------|
A|------------------------------------|
E|-5-5---5-5--0-0--0-2-0-2---2-2--0-0-|

x2

[Verse]

G|------------------------------------|
D|------------------------------------|
A|------------------------------------|
E|-5-5---5-5--0-0--0-2-0-2---2-2--0-0-|

x4

[Chorus]

G|------------------2-2-2--2----------|
D|--------4-4-4--4-----------4-4-4--4-|
A|-5-5--5-----------------------------|
E|------------------------------------|

x4

[Post-Chorus]

G|-----------------2-2-2-2---------|
D|---------4-4-4-4---------4-4-4-4-|
A|-5-5-5-5-------------------------|
E|---------------------------------|

x2

[Bridge]

G|-------------------------------------------------------------|
D|-------------------------------------------------------------|
A|-5----7----9----12----5----7----9----12-12-12-12-12-12-12-12-|
E|-------------------------------------------------------------|

[Chorus] (2:18)

G|----2-2-2--2----------|
D|-4\----------4-4-4--4-|
A|----------------------|
E|----------------------|

G|------------------2-2-2--2----------|
D|--------4-4-4--4-----------4-4-4--4-|
A|-5-5--5-----------------------------|
E|------------------------------------|

x3

[Post-Chorus]

G|-----------------2-2-2-2---------|
D|---------4-4-4-4---------4-4-4-4-|
A|-5-5-5-5-------------------------|
E|---------------------------------|

x2

[Outro]

G|--------------------------------------|
D|--------------------------------------|
A|--------------------------------------|
E|-5-5---5-5--0-0--0-2-0-2---2-0-2-2--5-|




************************************

| x   Dead note
| g   Grace note
| (n) Ghost note
| h   Hammer-on
| p   Pull-off
| r   Release
| >   Accented note
| t   Tapping
| b   Bend
| br  Bend release
| pb  Pre-bend
| pbr Pre-bend release
| /   Slide up
| \   Slide down
| ~   Vibrato
| s   Slap
| P   Pop
| PM  Palm mute
| TR  Trill
| N   Tremolo

************************************
Suggest correction
Give kudos to tab author, rate the tab!
1 2 3 4 5
comments
print report bad tab
guest
You may want to rate the tab now too:
select rating
Wanna post a correction for this tab? Suggest correction