Oops, an error
Loading. Please wait.

El Aguajal tab

version 2
version 2

Whole song

35 views 1 this week
no commentswrite comment
1 2 3 4 5
3 more votes to show rating
add to favorites
×
Save as Personal and add changes to this tab that will be seen only by you. Learn more ›
×
You can save this tab as Personal to edit and correct it or add notes. All changes will be seen only by you. Learn more »
launch autoscroll
font size
0
reset
how to read this tab
guitar tuner
edit
Autoscroll
slow
fast
+/-
esc
set tempo
stop
ESTA CANCION SE LA DEDICO COMO TODAS A MI QUERIDA
ALUMNA ALFONSINA Y AL MAESTRO PABLO ESTRELLA
GUITARRISTA DE CRUKS.

NOTA: OBIAMENTE ESTA CANCION NO ES TOCADA CON NOTAS
SENCILLAS SINO TODAS SON CON PUENTE EL WhA DEL PRINCIPIO
LO HACE EL PIANISTA PERO SI TIENES WHA LO PUEDES HACER
TOCANDO CON EL MI*.

INTRO:

LA INTRODUCCIÓN ES DE BATERIA A DOS REDOBLANTES


                                               MI    MI*
Si se marcho sin un adiós que se vaya que se vaya
      C            G          B               MI  MI*
Si se marcho sin un adiós que se vaya que se vaya
    G   D             G                 B     Riff 1
Amores hay cariños hay todititos traicioneros
    G     D           G          B         MI  MI*
Amores hay cariños hay todititos embusteros

D----------------------------5--7--8----------------
A------5--7--------5--6--7-------------------------
E---7------------7-----------------------------------

D----------------7-8--7-8-----------------------------
A------5--7-----------------------------------------
E---7----------------------------------------------

D----------------------------5--7--8----------------
A------5--7--------5--6--7-------------------------
E---7------------7-----------------------------------

D-----------------8--7--5-------------------------------
A------5--7-----------------7------------------------
E---7----------------------------------------------


        C          G           B             MI   MI*
El aguajal de este lugar solo sabe mi tormento
        C          G          B                MI  MI*
El papayal de este lugar solo sabe mis sufrimientos
   G             D        G       B          Riff 1
Llamo aquí llamo allá pero nadie me responde
  G         D            G      B              MI   MI*
Miro aquí miro allá pero nadie se aparece-eee ooo

SOLO

E---------------12-------------------10-------------10------------------------14---------
B---------------------13-------------------12------------12------------------------16----
G---10h12----------------------12------------12------------12----14h16---------------
D--------------------------------------------------------------------------------------------

E----------15h12----------15h12-------------------------------------
B---12---------------12-------------12-----------------------------------
G--------------------------------------------------------------------------
D--------------------------------------------------------------------------

E--------------12------------------10-------------10-------------------
B--------------------13-----------------12--------------12-------------
G---10h12-------------------12------------12----------------12------
D-------------------------------------------------------------------------

E----8----8----8----8------8--8-----7---6---------------------
B---10---10--10--10-----10-10----8---7---------------------
G------------------------------------------------------------------

ESTA PARTE COMO SE DAN CUENTA ES RASGADA APAGADA
ASI QUE AGANLO CON LAS NOTAS CON EL NUMERO DE
VECES QUE LAS PONGO ESCUCHEN LA CANCION PARA QUE
SEPAN COMO ES.

E---12---12---12---12-----12--12---10--10-------------------
B---13---13---13---13-----13--13---12--10-------------------
G---12---12---12---12-----12--13---12--10-------------------
D-------------------------------------------------------------------

E----8----8----8----8------8--8-----7---6-----------------------
B---10---10--10--10-----10-10----8---7-----------------------
G-------------------------------------------------------------------

E---12---12---12---12-----12--12---10--10-------------------
B---13---13---13---13-----13--13---12--10-------------------
G---12---12---12---12-----12--13---12--10-------------------
D-------------------------------------------------------------------

E---14---14---14---14-----14--14---12--12--12---------------
B---16---16---16---16-----16--16---15--15--15--------------
G---16---16---16---16-----16--16------------------------------
D-------------------------------------------------------------------

Si se marcho sin un adiós que se vaya que se vaya

E---------------12-------------------10-------------10------------------------14---------
B---------------------13-------------------12------------12------------------------16----
G---10h12----------------------12------------12------------12----14h16---------------
D--------------------------------------------------------------------------------------------

E----------15h12----------15h12-------------------------------------
B---12---------------12-------------12-----------------------------------
G--------------------------------------------------------------------------
D--------------------------------------------------------------------------

            Riff *
Si se marcho sin un adiós que se vaya que se vaya


 Riff *
E---------------12-------------------10--------------10-----8--------------------------
B---------------------13-------------------12---------------10------------------------
G---10h12----------------------12------------12-------------------------------
D--------------------------------------------------------------------------------------------

  G      D            G             B         Riff 1
Amores hay cariños hay todititos traicioneros
G            D                 G             B        MI  MI*
Amores hay cariños hay todititos embusteeeroooos ee ooo ee

ESTA PARTE MANDALE DISTORSION Y ES LO MISMO QUE EL BAJO

D------2--5--------------------------------------9------
A--3-------------2--5---------6--9----7--10----------
E--------------3------------7----------------------------

D------2--5--------------------------------------9------
A--3-------------2--5---------6--9----7--10----------
E--------------3------------7----------------------------

TODA ESTA PARTE SIGUE LO MISMO
Si se marcho si un adiós  si me robo la inspiración si me dejo

Tirado ahí si me rompió el corazón si le digo a mis amigos que

No quiero estar contigo no entienden lo que hago no entienden

Lo que digo  si a tu madre o tu padre no les gusta mi

Apariencia que se vaya que se vaaaayyaaaa

D----------------------------5--7--8----------------
A------5--7--------5--6--7-------------------------
E---7------------7-----------------------------------

D----------------7-8--7-8-----------------------------
A------5--7-----------------------------------------
E---7----------------------------------------------

D----------------------------5--7--8----------------
A------5--7--------5--6--7-------------------------
E---7------------7-----------------------------------

D-----------------8--7--5-------------------------------
A------5--7-----------------7------------------------
E---7----------------------------------------------

D----------------------------5--7--8----------------
A------5--7--------5--6--7-------------------------
E---7------------7-----------------------------------

D----------------7-8--7-8-----------------------------
A------5--7-----------------------------------------
E---7----------------------------------------------

D----------------------------5--7--8----------------
A------5--7--------5--6--7-------------------------
E---7------------7-----------------------------------

D-----------------8--7--5-------------------------------
A------5--7-----------------7------------------------
E---7----------------------------------------------

Riff 1

E---7----7--7--7--10--7--9------------------
B---8----8--8--8--8---8--8-----------------
G---7----7--7--7--7---7--7------------------
D---9----9--9--9--9---9--9------------------
A---7----7--7--7--7---7--7------------------
E---7----7--7--7--7---7--7------------------

NOTAS

         MI                MI*
E-----7---------------10------
B-----8---------------8-----
G-----7---------------7------
D-----9---------------9----
A-----7---------------7-----
E -----7---------------7----


AHÍ ESTA DEDICADA A MI ALFONSINA Y PARA
ESTEBAN ARMAS GRACIAS YA ESTAREMOS POR CUBA.
si necesitan ayuda mas rapida 098059519 Movis

            
            
Suggest correction
Creating personal tab
Creating personal tab
You can edit any tab online and save it as your Personal.

You can edit, replace or remove any tab part or add personal notes – all changes will be seen only by you.

Personal tabs can be accessed anytime from any device, even offline.
Learn more »
Give kudos to tab author, rate the tab!
1 2 3 4 5
comments
print report bad tab
guest
Wanna post a correction for this tab? Suggest correction