Oops, an error
Loading. Please wait.

Estas Buena (Misogino) chords

50 views 1 this week
no commentswrite comment
1 2 3 4 5
3 more votes to show rating
add to favorites
×
Save as Personal and add changes to this tab that will be seen only by you. Learn more ›
×
You can save this tab as Personal to edit and correct it or add notes. All changes will be seen only by you. Learn more »
launch autoscroll
font size
0
reset
transpose
0
reset
display chords
guitar tuner
edit
Autoscroll
slow
fast
+/-
esc
set tempo
stop
Strumming
There is no strumming pattern for this song yet. and get +5 IQ
     (A)
1|------------7-------------|
2|------------7-------------|
3|------------9-------------|
4|------------9-------------|
5|------------8-------------|
6|------------7-------------|

    (B)
1|------------2-------------|
2|------------2-------------|
3|------------4-------------|
4|------------4-------------|
5|------------3-------------|
6|------------2-------------|

    (C)

1|------------4-------------|
2|------------4-------------|
3|------------6-------------|
4|------------5-------------|
5|------------5-------------|
6|------------4-------------|

INTRO

A, B, B, A, A, C,C (X6)

VERSO
  A       B        B
CON ESE CUERPO DE MUSA
  A           A
Y ESA CARITA DE NADA
    C          C
PASEANDOTE POR MI CASA
    A              A
INQUIETAS LA MUCHACHADA

VERSO 2
     A                C                       B
LOS ENCANTOS DE TU CUERPO SE PERFILAN EN TU ROPA !!
  A        A         B           B            C    
COMO UNA PIEDRA PRECIOSA QUE SE MIRA Y NO SE TOKA

CORO

A     B B     C  C
ESTAS BUENA 
ESTAS BUENA

AQUI SE CORTA EL SONIDO Y CONTIUNIA EN:

ESTAS BUENA 
ESTAS BUENA

PARA LA SEGUNDA PARATE DE LA CANCION SOLO CAMBIA LA LETRA 
PERO EL VERSO Y VERSO2
SON LOS MISMOS ACORDES.

ASI VA LA CANCION:

INTRO X6
VERSO
VERSO 2
CORO  X4
INTRO X2
VERSO
VERSO 2
CORO  X4

EL FINAL ES IGUAL QUE LA INTRO.

SI TIENEN ALGUNA CORRECCION ESCRIBANME A:

PATOREINOSO@


OYE CRUKS EN KARNAK ES DE LO MEJOR.

            
            
Suggest correction
Creating personal tab
Creating personal tab
You can edit any tab online and save it as your Personal.

You can edit, replace or remove any tab part or add personal notes – all changes will be seen only by you.

Personal tabs can be accessed anytime from any device, even offline.
Learn more »
Give kudos to tab author, rate the tab!
1 2 3 4 5
comments
print report bad tab
guest
Wanna post a correction for this tab? Suggest correction