Oops, an error
Loading. Please wait.

Tira Y Afloja chords

8 views 1 this week
no commentswrite comment
1 2 3 4 5
3 more votes to show rating
add to favorites
×
Save as Personal and add changes to this tab that will be seen only by you. Learn more ›
×
You can save this tab as Personal to edit and correct it or add notes. All changes will be seen only by you. Learn more »
launch autoscroll
font size
0
reset
transpose
0
reset
display chords
guitar tuner
edit
Autoscroll
slow
fast
+/-
esc
set tempo
stop
Strumming
There is no strumming pattern for this song yet. and get +5 IQ

G|-------------------------
D|---------------3---------
A|---3-5-----3h5--5--------
E|-5-----5-5---------------

e|-----------------------------------
B|-----------------------------------
G|-----------------------------------
D|---575-3----------5-7-3------------
A|-7-353---5~~~---7-3-5---5-3~~~-----
E|-5--------------5------------------

ESTROFAS:
   Am    Em    Am    Em
e|-5~~~--7~~~--8~~~--12~~~---------
B|-5~~~--8~~~--10~~~-12~~~---------
G|-5~~~--9~~~--9~~~--12~~~---------
D|--------------------------------
A|--------------------------------
E|--------------------------------

Am
En mi ciudad no hay luces
es como adorar la noche
Em
se percibe como densa inmensidad
Am
se derrite como helado de fruta rancia al sol,
Em
como inmersión al mar de la oscuridad.
En mi ciudad los días y las noches son largos,
largos como el sin fin de tu pena,
largos como el asfalto que cubre la autopista subiminal
que va directamente a la conciencia.

Soy hijo de mi ciudad y como hijo la respeto
busco la debilidad entre las calles del centro,
soy hijo de mi ciudad, un musico mercenario
canta siempre mi canción y llora siempre mi llanto,
y los días y la noches copulan bajo mi mirada
irresistiblemente tentada a saborear minutos exquisitos de gloria
de deliciosa noche que existe solo sobre mi ciudad.

CORO:
  Tira y afloja, tira y afloja
e|------------------------------------
B|-------------------------s12s12s12--
G|---------999---------999-s12s12s12--
D|-777-----999---777---999------------
A|-777-----777---777---777------------
E|-555-----------555------------------

Am     Em      Am     Em
Tira y afloja, tira y afloja,
Am     Em      Am        Em
traga sáliva, tira y afloja
Tira y afloja, tira y afloja,
es mi rutina, tira y afloja.

Despues del coro viene esto en el bajo

G|-------------7-|-----------s7----------
D|-s7--5--7--5---|-s7--5--7--------------
A|---8--5--8-----|---8--5--8-------------
E|---------------|-----------------------

   Arm              Arm
e|-------------------12-----------
B|-12----------------12-----------
G|-12----------------12-----------
D|-12-----------------------------
A|--------------------------------
E|--------------------------------


En mi ciudad en es en donde conocí el amor,
donde conocí la pena del amor perdido
y sus ruidos acompañan mis recuerdos
como lobos merodeando a su presa en la turbia noche
En mi ciudad yo golpeo y soy golpeado
y me sumergo en su rabioso laberinto de calles
para tratar de encontrar una forma de salir
a respirar el verdadero aire de sus personajes.

Soy hijo de mi ciudad la acepto con sus defectos,
soy hijo de mi ciudad, un musico mercenario
canta siempre mi canción y llora siempre mi llanto


   Am
e|-----------------------------------------------------------
B|-----------------------------------------------------------
G|-------------------------3~~~~-----------------------5-3---
D|-7~~~-----3---------3-5-3-------7~~~-----3---------3-----5-
A|------353--5~~~-3h5------------------353--5~~~-3h5---------
E|-5~~~---------------------------5~~~-----------------------

   B
e|-----------------------------------------------------------
B|-----------------------------------------------------------
G|-------------------------5~~~~-----------------------7-5---
D|-9~~~-----5---------5-7-5-------9~~~-----5---------5-----7-
A|------575--7~~~-5h7------------------575--7~~~-5h7---------
E|-7~~~---------------------------7~~~-----------------------

   C
e|-----------------------------------------------------------
B|-----------------------------------------------------------
G|--------------------------7~~~~----------------------9-7---
D|-10~~~-----7---------7-9-7------10~~~----7---------7-----9-
A|------797---9~~~-7h9------------------797--9~~~-7h9--------
E|-8~~~---------------------------8~~~-----------------------

   Em
e|-------------------------------------------------------------------
B|-------------------------------------------------------------------
G|-----------------------------9~~~~------------------------11-9-----
D|-12~~~-----9-----------9-11-9-----12~~~-----9-----------9------11--
A|------9119--11~~~-9h11------------------9119--11~~~-9h11-----------
E|-10~~-----------------------------10~~~----------------------------


CORO.
CORO.

Termina así
e|----------------------------
B|----------------------------
G|---------5----------5-------
D|----575--3-7----575-3-------
A|-7--353----5--7-353---------
E|-5------------5-------------
Suggest correction
Creating personal tab
Creating personal tab
You can edit any tab online and save it as your Personal.

You can edit, replace or remove any tab part or add personal notes – all changes will be seen only by you.

Personal tabs can be accessed anytime from any device, even offline.
Learn more »
Give kudos to tab author, rate the tab!
1 2 3 4 5
comments
print report bad tab
guest
Wanna post a correction for this tab? Suggest correction