Oops, an error
Loading. Please wait.

Bones tab

by Crumb
307 views 24 this week
1 commentread comment
1 2 3 4 5
x 3
add to favorites
×
Save as Personal and add changes to this tab that will be seen only by you. Learn more ›
×
You can save this tab as Personal to edit and correct it or add notes. All changes will be seen only by you. Learn more »
launch autoscroll
font size
0
reset
how to read this tab
guitar tuner
edit
Autoscroll
slow
fast
+/-
esc
set tempo
stop
Author
Difficulty
About this tab version
This is a full tab of the main guitar part in the song Bones by Crumb. Was this info helpful? Yes No
[Intro]

e|-------5---------|-------5---------|
B|-----3-----3-----|-----3-----3-----|
G|---6---------6---|---6---------6---|
D|-4---------------|-4---------------| x8
A|-----------------|-----------------|
E|-----------------|-----------------|

e|-----5-8---6-----|-------5---------|
B|---6-------------|-----5-----------|
G|-----------------|---5-------3-----|
D|-5-------------3-|---------1-------|
A|-----------------|-------------1---|
E|-----------------|-----------------|

e|-------0---------|-------0---------|-----------------|-----------------|
B|-----2-----2-----|-----2-----2-----|-------2---------|-------1---------|
G|---1---------1---|---1---------1---|-----4-----4-----|-----3-----3-----|
D|-----------------|-----------------|---3---------3---|---2---------2---| x2
A|-0---------------|-0---------------|-----------------|-----------------|
E|-----------------|-----------------|-3---------------|-2---------------|

e|-------0---------|-------0---------|-------5---------|-------5---------|
B|-----2-----2-----|-----2-----2-----|-----6-----6-----|-----6-----6-----|
G|---1---------1---|---1---------1---|---5---------5---|---4---------4---|
D|-----------------|-----------------|-----------------|-----------------|
A|-0---------------|-0---------------|-5---------------|-----------------|
E|-----------------|-----------------|-----------------|-3---------------|

e|-------0---------|-------0---------|-----------------|
B|-----2-----2-----|-----2-----2-----|-------2---------|
G|---1---------1---|---1---------1---|-----4-----4-----|
D|-----------------|-----------------|---3---------3---|
A|-0---------------|-0---------------|-----------------|
E|-----------------|-----------------|-3---------------|

e|-----------------|-----------------|-----------------|-----------------|
B|-------1---------|-------1---------|-------1---------|-1---------------|
G|-------2---------|-------2---------|-------2---------|-2---------------|
D|-----2-------2---|-----2-------2---|-----2-------2---|-2---------------|
A|-----------------|-----------------|-----------------|-----------------|
E|-1---------------|-1---------------|-1---------------|-1---------------|


[Verse]

   Baby,                         I    want  you   to    know  that you're
e|-0-----0---------|-------0---------|-----------------|-----------------|
B|-2-----2---------|-------2---------|-------2---------|-------1---------|
G|-----1-------1---|-----1-------1---|-------4---------|-------3---------|
D|-----------------|-----------------|-----3-------3---|-----2-------2---|
A|-0---------------|-0---------------|-----------------|-----------------|
E|-----------------|-----------------|-3---------------|-2---------------|

   really                              driving     me    crazy,     and
e|-------0---------|-------0---------|-----------------|-----------------|
B|-------2---------|-------2---------|-------2---------|-------1---------|
G|-----1-------1---|-----1-------1---|-------4---------|-------3---------|
D|-----------------|-----------------|-----3-------3---|-----2-------2---|
A|-0---------------|-0---------------|-----------------|-----------------|
E|-----------------|-----------------|-3---------------|-2---------------|

   now                           a     thousand          tears are
e|-------0---------|-------0---------|-5-----5---------|-------5---------|
B|-------2---------|-------2---------|-6-----6---------|-------6---------|
G|-----1-------1---|-----1-------1---|-5---5-------5---|-----4-------4---|
D|-----------------|-----------------|-----------------|-----------------|
A|-0---------------|-0---------------|-5---------------|-----------------|
E|-----------------|-----------------|-----------------|-3---------------|

   pouring                             down to     my
e|-------0---------|-------0---------|-----------------|
B|-------2---------|-------2---------|-------2---------|
G|-----1-------1---|-----1-------1---|-------4---------|
D|-----------------|-----------------|-----3-------3---|
A|-0---------------|-0---------------|-----------------|
E|-----------------|-----------------|-3---------------|

   toes.
e|-----------------|-----------------|-----------------|-----------------|
B|-------1---------|-------1---------|-------1---------|-1---------------|
G|-------2---------|-------2---------|-------2---------|-2---------------|
D|-----2-------2---|-----2-------2---|-----2-------2---|-2---------------|
A|-----------------|-----------------|-----------------|-----------------|
E|-1---------------|-1---------------|-1---------------|-1---------------|

[Verse]

   Baby,                       you're  just in     my    head, in    my
e|-0-----0---------|-------0---------|-----------------|-----------------|
B|-2-----2---------|-------2---------|-------2---------|-------1---------|
G|-----1-------1---|-----1-------1---|-------4---------|-------3---------|
D|-----------------|-----------------|-----3-------3---|-----2-------2---|
A|-0---------------|-0---------------|-----------------|-----------------|
E|-----------------|-----------------|-3---------------|-2---------------|

   daydreams.                          Nobody            knows you.  It
e|-------0---------|-------0---------|-----------------|-----------------|
B|-------2---------|-------2---------|-------2---------|-------1---------|
G|-----1-------1---|-----1-------1---|-------4---------|-------3---------|
D|-----------------|-----------------|-----3-------3---|-----2-------2---|
A|-0---------------|-0---------------|-----------------|-----------------|
E|-----------------|-----------------|-3---------------|-2---------------|

   can't be,                   'cause  when  I    think of    you,   I
e|-------0---------|-------0---------|-5-----5---------|-5-----5---------|
B|-------2---------|-------2---------|-6-----6---------|-6-----6---------|
G|-----1-------1---|-----1-------1---|-5---5-------5---|-4---4-------4---|
D|-----------------|-----------------|-----------------|-----------------|
A|-0---------------|-0---------------|-5---------------|-----------------|
E|-----------------|-----------------|-----------------|-3---------------|

   swear babe;                I  can   see   you,   your
e|-------0---------|-------0---------|-----------------|
B|-------2---------|-------2---------|-------2---------|
G|-----1-------1---|-----1-------1---|-------4---------|
D|-----------------|-----------------|-----3-------3---|
A|-0---------------|-0---------------|-----------------|
E|-----------------|-----------------|-3---------------|

   bones.
e|-----------------|-----------------|-----------------|-----------------|
B|-------1---------|-------1---------|-------1---------|-1---------------|
G|-------2---------|-------2---------|-------2---------|-2---------------|
D|-----2-------2---|-----2-------2---|-----2-------2---|-2---------------|
A|-----------------|-----------------|-----------------|-----------------|
E|-1---------------|-1---------------|-1---------------|-1---------------|

[Bridge]

(This section has some odd timing. Beats are written above the tab to help.)

  (1)+(2)+(3)+(4)+(5)+  (1)+(2)+(3)+(4)+(5)+  (1)+(2)+(3)+(4)+(5)+  (1)+(2)+(3)+(4)+(5)+  
e|-5-------------------|-5-------------------|-5-----------5-------|-3-----------3-------|
B|-------3---------3---|-------3---------3---|-6-----------5-------|-3-----3-----3-------|
G|-----6-----6---------|-----6-----6---------|-------------5-------|-3-----3-----3-------|
D|-4-----------4-------|-4-----------4-------|-5-----------3-------|-1---1-----1---------|
A|---------------------|---------------------|---------------------|---------------------|
E|---------------------|---------------------|---------------------|---------------------|

  (1)+(2)+(3)+(4)+(5)+(6)+  (1)+(2)+(3)+(4)+(5)+  
e|-------0-----0-----------|-------7---------6---|
B|-------2-----2-----------|-------6---------5h6-|
G|-----1-----1-------------|-----6-----------5---|
D|-------------------------|-5-----------4-------| x2
A|-0-----------------------|---------------------|
E|-------------------------|---------------------|

  (1)+(2)+(3)+(4)+(5)+(6)+  (1)+(2)+(3)+(4)+(5)+  
e|-------0-----0-----------|-5-----5-----5---5---|
B|-------2-----2-----------|-6-----6-----6---6---|
G|-----1-----1-------------|-5-----5-----4---4---|
D|-------------------------|---------------------|
A|-0-----------------------|-5-----5-------------|
E|-------------------------|-------------3---3---|

  (1)+(2)+(3)+(4)+(5)+(6)+  (1)+(2)+(3)+
e|-------0-----0-----------|-------7-----|
e|-------0-----0-----------|-2-----2-----|
G|-----1-----1-------------|-4-----4-----|
E|-------------------------|-3-----3-----|
A|-0-----------------------|-------------|
E|-------------------------|-3-----------|

e|-----------------|-----------------|-----------------|-----------------|
B|-------1---------|-------1---------|-------1---------|-1---------------|
G|-------2---------|-------2---------|-------2---------|-2---------------|
D|-----2-------2---|-----2-------2---|-----2-------2---|-2---------------|
A|-----------------|-----------------|-----------------|-----------------|
E|-1---------------|-1---------------|-1---------------|-1---------------|

[Verse]

   Lately,                            you   are   the    first one  to
e|-------0---------|-------0---------|-----------------|-----------------|
B|-------2---------|-------2---------|-------2---------|-------1---------|
G|-------------1---|-----1-------1---|-------4---------|-------3---------|
D|-----------------|-----------------|-----3-------3---|-----2-------2---|
A|-----------------|-0---------------|-----------------|-----------------|
E|-----------------|-----------------|-3---------------|-2---------------|

   find me,                            drowining  and    drowning.   I
e|-------0---------|-------0---------|-----------------|-----------------|
B|-------2---------|-------2---------|-------2---------|-------1---------|
G|-----1-------1---|-----1-------1---|-------4---------|-------3---------|
D|-----------------|-----------------|-----3-------3---|-----2-------2---|
A|-0---------------|-0---------------|-----------------|-----------------|
E|-----------------|-----------------|-3---------------|-2---------------|

   can't swim,                  your   waves are         too  big   and
e|-------0---------|-------0---------|-5-----5---------|-5-----5---------|
B|-------2---------|-------2---------|-6-----6---------|-6-----6---------|
G|-----1-------1---|-----1-------1---|-5---5-------5---|-4---4-------4---|
D|-----------------|-----------------|-----------------|-----------------|
A|-0---------------|-0---------------|-5---------------|-----------------|
E|-----------------|-----------------|-----------------|-3---------------|

   I     am                            falling     a-
e|-------0---------|-------0---------|-----------------|
B|-------2---------|-------2---------|-------2---------|
G|-----1-------1---|-----1-------1---|-------4---------|
D|-----------------|-----------------|-----3-------3---|
A|-0---------------|-0---------------|-----------------|
E|-----------------|-----------------|-3---------------|

   sleep.
e|-----------------|-----------------|-----------------|-----------------|
B|-------1---------|-------1---------|-------1---------|-1---------2-----|
G|-------2---------|-------2---------|-------2---------|-2---------3-----|
D|-----2-------2---|-----2-------2---|-----2-------2---|-2---------3-----| x4
A|-----------------|-----------------|-----------------|-----------------|
E|-1---------------|-1---------------|-1---------------|-1---------2-----|

[Outro]

(During the saxophone solo, the guitar just strums these chords.
 They are the same as the chords in the verses, just strummed instead.)

e|-0-|-0-|---|---|
B|-2-|-2-|-2-|-1-|
G|-1-|-1-|-4-|-3-|
D|-x-|-x-|-3-|-2-| x2
A|-0-|-0-|-x-|-x-|
E|-x-|-x-|-3-|-2-|

e|-0-|-0-|---|-5-|
e|-0-|-0-|-6-|-6-|
G|-1-|-1-|-5-|-4-|
D|-x-|-x-|-x-|-x-|
A|-0-|-0-|-5-|-x-|
E|-x-|-x-|-x-|-3-|

e|-0-|-0-|---|
B|-2-|-2-|-2-|
G|-1-|-1-|-4-|
D|-x-|-x-|-3-|
A|-0-|-0-|-x-|
E|-x-|-x-|-3-|
         
             (HIT)

e|---|---|---|---|
B|-1-|-1-|-1-|-1-|
G|-2-|-2-|-2-|-2-|
D|-2-|-2-|-2-|-2-|
A|-x-|-x-|-x-|-x-|
E|-1-|-1-|-1-|-1-|

************************************

| h   Hammer-on
| x   Dead note

************************************

            
            
Suggest correction
Creating personal tab
Creating personal tab
You can edit any tab online and save it as your Personal.

You can edit, replace or remove any tab part or add personal notes – all changes will be seen only by you.

Personal tabs can be accessed anytime from any device, even offline.
Learn more »
Give kudos to tab author, rate the tab!
1 2 3 4 5
comments
print report bad tab
1 comment total.
0 reply
Josh62999 31 Mar 30, 2017 02:18 PM

👍

guest
You may want to rate the tab now too:
select rating
Wanna post a correction for this tab? Suggest correction