Oops, an error
Loading. Please wait.

King For A Day Tab

1,954 views 1 this week
no commentswrite comment
1 2 3 4 5
2 more votes to show rating
add to favorites
launch autoscroll
font size
0
reset
how to read this tab
guitar tuner
Autoscroll
slow
fast
+/-
esc
set tempo
stop
Help us to improve Ultimate-Guitar.com Take our survey!
×
Author
Difficulty
novice
http://www.crush.ca/

Artist: Crush
Album: Face in the Crowd
Song: King For A Day


Intro/Verse
Guitar 1(Repeat through verse)
E------------------7--------------------------------------7---------------------------------------------7------------------|
B----------10-----------10------------------------10-----------10-----------------------------10-------------10------------|
G---7---------------------------7------------7-------------------------7--------------7---------------------------------7--|
D--------------------------------------------------------------------------------------------------------------------------|
A--------------------------------------------------------------------------------------------------------------------------|
E--------------------------------------------------------------------------------------------------------------------------|

Guitar 2(Repeat through verse)
E------3------3--------------3------3-----------------3-------3-----------------3------3--|
B------3------3--------------3------3-----------------3-------3-----------------3------3--|
G------0------0--------------0------0-----------------0------0------------------0------0--|
D------0------0--------------2------2-----------------0------0------------------2------2--|
A------2------2--------------3-3-3-3-3-3-3-3------2-2-2-2-2-2-2-2-----0-0-0-0-0-0-0-0-----|
E------3-3-3-3-3-3-3-3--------------------------------------------------------------------|

Bridge

Guitar 1
E-------7-8--|
B----8-------|
G------------|
D------------|
A------------|
E------------|

Guitar 2
E--------------0-----------------2----------3-----------------0-----------------2----------3--|
B-----------3-----------------3-----3----------------------3-----------------3-----3----------|
G--------------------------2------------2----------------------------------2-----------2------|
D------2--------------0--------------------------------2---------------0----------------------|
A---3-----------------------------------------------3-----------------------------------------|
E---------------------------------------------------------------------------------------------|

Chorus: Em, C, G, D
After chorus riff(Guitar 2 accompanies with C, G, D with strumming similar to verse)

E-------------------------------------------------------------------------------|
B----10---10--/---12-----10-----8------5----/--8----/--10----/--12-----10---10--|
G-------------------------------------------------------------------------------|
D-----7---7---/----9------7------5------2---/---5---/----7---/----5------7---7--|
A-------------------------------------------------------------------------------|
E-------------------------------------------------------------------------------|

Chords

Em ->  022000
C -> x32010
G -> 320002
D -> xx0232
Suggest correction
Give kudos to tab author, rate the tab!
1 2 3 4 5
comments
print report bad tab
guest
You may want to rate the tab now too:
select rating
Wanna post a correction for this tab? Suggest correction