Oops, an error
Loading. Please wait.

What Im Made tab

2,718 views 1 this week
1 commentread comment
1 2 3 4 5
2 more votes to show rating
add to favorites
×
Save as Personal and add changes to this tab that will be seen only by you. Learn more ›
×
You can save this tab as Personal to edit and correct it or add notes. All changes will be seen only by you. Learn more »
launch autoscroll
font size
0
reset
how to read this tab
guitar tuner
edit
Autoscroll
slow
fast
+/-
esc
set tempo
stop
Track: What I’m Made Of
Album: Sonic Heroes (Triple Threat?)
Tabbed by: Mick Molloy
Duration: (3:43)
Difficulty:????

E|------------------------------------------------------------------------------|
B|--12-9-12-10------------------12---------12----12-9-12/10-10-9----------------|
G|-------------11/9-----9h11-11----9h11-11-----------------------9--------------|
D|------------------------------------------------------------------------------|
A|------------------------------------------------------------------------------|
E|------------------------------------------------------------------------------|

E|-------------------------------------------------------------------------------|
B|-------10---------10-----------------------------------------------------------|
G|--9h11----11—9h11----11-----4-6b-6b-4-6-6-6-6------7/0-------------------------|
D|---------------------------------------------------7/0-------------------------|
A|-------------------------------------------------------------------------------|
E|-------------------------------------------------------------------------------|

Verse
       I don't care what you're thinking as you turn to me
E|-------------------3-----------2----------------------------------------------|
B|-------------------0-----------3----------------------------------------------|
G|-----2-------0-----0-----------2--------2---0------------0--2-----2\----------|
D|-----2-------0-----0-----------0--------2---0------------0--2--2—-2\----------|
A|-----0-------0--------------------------0---0------------0--0-----0\----------|
E|------------------------------------------------------------------------------|

        Cause what I have in my two hands is enough to set me free
E|------------2--------------2--------------------------------------------------|
B|------------3--------------3--------------------------------------------------|
G|------------2------2-------2------0------------------------------------2----4-|
D|------------0------2-------0------0--------2-----2---2---4--2--2--2----2----4-|
A|-------------------0--------------0--------2-----2---2---4--2--2--2----0----2-|
E|------------------------------------------------------------------------------|


       I could fight the feeling to resist it over time
E|------------------------3-------2---------------------------------------------|
B|------------------------0-------3---------------------------------------------|
G|-----2-------0----------0-------2--------2---0-----2--------------------------|
D|-----2-------0----------0-------0--------2---0-----2--------------------------|
A|-----0-------0---------------------------0---0-----0-------5------------------|
E|-----------------------------------------------------------------<5>----------|


        But when it's just too much to take you sneak up from behind
E|----------2------------------2------------------------------------------------|
B|----------3------------------3------------------------------------------------|
G|----------2--------2---------2-------0----------------------------------------|
D|----------0--------2---------0-------0-----2-----2---2---4--2--2--2-----------|
A|-------------------0-----------------0-----2-----2---2---4--2--2--2-----------|
E|------------------------------------------------------------------------------|


Prechorus
        Is it me 	    You say 	you're looking for
E|------------2------------3-----------------------------------------------------|
B|------------3------------0-----------------------------------------------------|
G|------------2------------0------------------2------0-----0--2-----2\-----------|
D|------------0------------0------------------2------0-----0--2--2—-2\-----------|
A|--------------------------------------------0------0-----0--0-----0\-----------|
E|-------------------------------------------------------------------------------|


        Let me show you who I am and what I'm here for... Here for
E|-------------2------------3---------------------------------------------------|
B|-------------3------------0---------------------------------------------------|
G|-------------2------------0-----------------2----0----------------------------|
D|-------------0------------0-----------------2----0------2----0----------------|
A|--------------------------------------------0----0------2----0----------------|
E|------------------------------------------------------------------------------|


	YEEEEAAAAAHHHHHHHH!
E|------------------------------------------------------------------------------|
B|------------------------------------------------------------------------------|
G|------0--2-----2-----2--2-----------------------------------------------------|
D|------0--2--2--2--2--2--2-----------------------------------------------------|
A|------0—-0-----0-----0--0-----------------------------------------------------|
E|------------------------------------------------------------------------------|
Chorus
        Try to reach inside of me

E|------------------------------------------------------------------------------|
B|------6\5----5-----3---------3-----8p6----------------------------------------|
G|------5\4----4-----2------2--2--------7p5-------------------------------------|
D|------3\2----2-----0---------0------------------------------------------------|
A|------------------------------------------------------------------------------|
E|------------------------------------------------------------------------------|

        Try to drain my energy
E|------------------------------------------------------------------------------|
B|------6\5----5-------8---8---8--8---------------------------------------------|
G|------5\4----4-------7-2-7---7--7---------------------------------------------|
D|------3\2----2-------5---5---5--5---------------------------------------------|
A|------------------------------------------------------------------------------|
E|------------------------------------------------------------------------------|

        Let me show you just what I'm made of
E|------------------------------------------------------------------------------|
B|------6------3-------------8----6---5----3------------------------------------|
G|------5------2-------------7----5---4----2------------------------------------|
D|------3------0-------------5----3---2----0------------------------------------|
A|------------------------------------------------------------------------------|
E|------------------------------------------------------------------------------|


        Simple curiousity
E|------------------------------------------------------------------------------|
B|------6\5----5---3----3------------8p6----------------------------------------|
G|------5\4----4---2-2--2---------------7p5-------------------------------------|
D|------3\2----2---0----0-------------------------------------------------------|
A|------------------------------------------------------------------------------|
E|------------------------------------------------------------------------------|


        Tries to take a bite of me
E|------------------------------------------------------------------------------|
B|------6\5------5------8-------8---8--8----------------------------------------|
G|------5\4------4------7----2--7---7--7----------------------------------------|
D|------3\2------2------5-------5---5--5----------------------------------------|
A|------------------------------------------------------------------------------|
E|------------------------------------------------------------------------------|

        Let me show you just what I'm made of now
E|------------------------------------------------------------------------------|
B|------6------3-------------8----6---5----6--3---------------------------------|
G|------5------2-------------7----5---4----5--2---------------------------------|
D|------3------0-------------5----3---2----3--0---------------------------------|
A|------------------------------------------------------------------------------|
E|------------------------------------------------------------------------------|

Verse
       Like a million faces I've recognized them all
E|--------------------3------2--------------------------------------------------|
B|--------------------0------3--------------------------------------------------|
G|-----2-----0--------0------2----2---0------------0--2-----2\------------------|
D|-----2-----0--------0------0----2---0------------0--2--2—-2\------------------|
A|-----0-----0--------------------0---0------------0--0-----0\------------------|
E|------------------------------------------------------------------------------|

        And one by one they all become a number as they fall
E|----------2---------------2---------------------------------------------------|
B|----------3---------------3---------------------------------------------------|
G|----------2------2--------2---0-----------------------------------2----4\-----|
D|----------0------2--------0---0--------2--2---2--4-----2--2--2----2----4\-----|
A|-----------------0------------0--------2--2---2--4-----2--2--2----0----2\-----|
E|------------------------------------------------------------------------------|

        In the face of reason I can't take no more
E|---------------------3--------------------------------------------------------|
B|---------------------0--------------------------------------------------------|
G|-----2-------0-------0--------------2---0-----2-------------------------------|
D|-----2-------0-------0-<4>p2--------2---0-----2-------------------------------|
A|-----0-------0----------------------0---0-----0-------5-----------------------|
E|------------------------------------------------------------<5>---------------|

        And One by one they all become a black mark on the floor
E|----------2----------------2--------------------------------------------------|
B|----------3----------------3--------------------------------------------------|
G|----------2------2---------2--0-----------------------------------------------|
D|----------0------2---------0--0--------2-----2----2--4---2--2--2--------------|
A|-----------------0------------0--------2-----2----2--4---2--2--2--------------|
E|------------------------------------------------------------------------------|


Prechorus
       Is it me 	    You say 	you're looking for
E|------------2------------3-----------------------------------------------------|
B|------------3------------0-----------------------------------------------------|
G|------------2------------0------------------2------0-----0--2-----2\-----------|
D|------------0------------0------------------2------0-----0--2--2—-2\-----------|
A|--------------------------------------------0------0-----0--0-----0\-----------|
E|-------------------------------------------------------------------------------|


        Let me show you who I am and what I have in store... In store
E|-------------2-------------3--------------------------------------------------|
B|-------------3-------------0--------------------------------------------------|
G|-------------2-------------0--------------2------0----------------------------|
D|-------------0-------------0--------------2------0---------2--0---------------|
A|------------------------------------------0------0---------2--0---------------|
E|------------------------------------------------------------------------------|

	HEY HEY YEAHHHHHHH!
E|------------------------------------------------------------------------------|
B|------------------------------------------------------------------------------|
G|------0--2-----2-----2--2-----------------------------------------------------|
D|------0--2--2--2--2--2--2-----------------------------------------------------|
A|------0—-0-----0-----0--0-----------------------------------------------------|
E|------------------------------------------------------------------------------|

Chorus
        Try to reach inside of me

E|------------------------------------------------------------------------------|
B|------6\5----5-----3---------3-----8p6----------------------------------------|
G|------5\4----4-----2------2--2--------7p5-------------------------------------|
D|------3\2----2-----0---------0------------------------------------------------|
A|------------------------------------------------------------------------------|
E|------------------------------------------------------------------------------|

        Try to drain my energy
E|------------------------------------------------------------------------------|
B|------6\5----5-------8---8---8--8---------------------------------------------|
G|------5\4----4-------7-2-7---7--7---------------------------------------------|
D|------3\2----2-------5---5---5--5---------------------------------------------|
A|------------------------------------------------------------------------------|
E|------------------------------------------------------------------------------|

        Let me show you just what I'm made of
E|------------------------------------------------------------------------------|
B|------6------3-------------8----6---5----3------------------------------------|
G|------5------2-------------7----5---4----2------------------------------------|
D|------3------0-------------5----3---2----0------------------------------------|
A|------------------------------------------------------------------------------|
E|------------------------------------------------------------------------------|

        Simple curiousity
E|------------------------------------------------------------------------------|
B|------6\5----5---3----3------------8p6----------------------------------------|
G|------5\4----4---2-2--2---------------7p5-------------------------------------|
D|------3\2----2---0----0-------------------------------------------------------|
A|------------------------------------------------------------------------------|
E|------------------------------------------------------------------------------|

        Tries to take a bite of me
E|------------------------------------------------------------------------------|
B|------6\5------5------8-------8---8--8----------------------------------------|
G|------5\4------4------7----2--7---7--7----------------------------------------|
D|------3\2------2------5-------5---5--5----------------------------------------|
A|------------------------------------------------------------------------------|
E|------------------------------------------------------------------------------|

        Let me show you just what I'm made of now
E|------------------------------------------------------------------------------|
B|------6------3-------------8----6---5----6--3---------------------------------|
G|------5------2-------------7----5---4----5--2---------------------------------|
D|------3------0-------------5----3---2----3--0---------------------------------|
A|------------------------------------------------------------------------------|
E|------------------------------------------------------------------------------|

Bridge

        If you could take another life long try
E|--------------------------------2---------------------------------------------|
B|--------------------------------3---------------------------------------------|
G|---------2---------4------------2---------------------------------------------|
D|---------2---------4------------0---------------------------------------------|
A|---------0---------2-------------------------------0--------------------------|
E|------------------------------------------0h2-2-2h4---------------------------|

        You can take another try
E|---------------------------2--------------------------------------------------|
B|---------------------------3--------------------------------------------------|
G|------2-------4------------2--------------------------------------------------|
D|------2-------4------------0--------------------------------------------------|
A|------0-------2-----------------5---------------------------------------------|
E|-----------------------------------<5>----------------------------------------|

Solo
E|--2---------4/7--4--5--2--0--2--0---------7--5--------------------------------|
B|-----0h2---------------------------2-----5------5--7--5—7--5------------------|
G|--------------------------------------4/6--------------------6----------------|
D|---------------------------------------------------------------7--------------|
A|------------------------------------------------------------------------------|
E|------------------------------------------------------------------------------|

E|--------------------5—7/9b-7-------10--16-----15------14----------------------|
B|-----4444-5555-7777--------------10------14-13--13-12---12--------------------|
G|---4--------------------------------------------------------------------------|
D|------------------------------------------------------------------------------|
A|------------------------------------------------------------------------------|
E|------------------------------------------------------------------------------|

E|------------------------------------------------------------------------------|
B|------------------------------------------------------------------------------|
G|---12/14-13—9-11b-9\7-7-6---------7—6b—7-9-9/11-9-----------------------------|
D|---------------------------7-9-9----------------------------------------------|
A|------------------------------------------------------------------------------|
E|------------------------------------------------------------------------------|

E|------------------------------------------------------------------------------|
B|---------14-13-------13-12----------------------------------------12b---------|
G|---11-14-------11-14-------11-------14b-11-11-11-11-14-14-13b-14b-------------|
D|------------------------------14-14-------------------------------------------|
A|------------------------------------------------------------------------------|
E|------------------------------------------------------------------------------|


E|------------------------------------------------------------------------------|
B|---17-17p14p12-17-17p14p12-17-17p14p12-17-17p14p12-17-17p14p12-17-17p14p12----|
G|------------------------------------------------------------------------------|
D|------------------------------------------------------------------------------|
A|------------------------------------------------------------------------------|
E|------------------------------------------------------------------------------|


E|------------------------------------------------------------------------------|
B|17-17p14p12-17-17p14p12-12-14/17----------------------------------------------|
G|------------------------------------------------------------------------------|
D|------------------------------------------------------------------------------|
A|------------------------------------------------------------------------------|
E|------------------------------------------------------------------------------|

Chorus
        Try to reach inside of me

E|------------------------------------------------------------------------------|
B|------6\5----5-----3---------3-----8\6----------------------------------------|
G|------5\4----4-----2------2--2--------7\5-------------------------------------|
D|------3\2----2-----0---------0------------------------------------------------|
A|------------------------------------------------------------------------------|
E|------------------------------------------------------------------------------|

        Try to drain my energy
E|------------------------------------------------------------------------------|
B|------6\5----5-------8---8---8--8---------------------------------------------|
G|------5\4----4-------7-2-7---7--7---------------------------------------------|
D|------3\2----2-------5---5---5--5---------------------------------------------|
A|------------------------------------------------------------------------------|
E|------------------------------------------------------------------------------|


        Let me show you just what I'm made of
E|------------------------------------------------------------------------------|
B|------6------3-------------8----6---5----3------------------------------------|
G|------5------2-------------7----5---4----2------------------------------------|
D|------3------0-------------5----3---2----0------------------------------------|
A|------------------------------------------------------------------------------|
E|------------------------------------------------------------------------------|


        Simple curiousity
E|------------------------------------------------------------------------------|
B|------6\5----5---3----3------------8\6----------------------------------------|
G|------5\4----4---2-2--2---------------7\5-------------------------------------|
D|------3\2----2---0----0-------------------------------------------------------|
A|------------------------------------------------------------------------------|
E|------------------------------------------------------------------------------|

        Tries to take a bite of me
E|------------------------------------------------------------------------------|
B|------6\5------5------8-------8---8--8----------------------------------------|
G|------5\4------4------7----2--7---7--7----------------------------------------|
D|------3\2------2------5-------5---5--5----------------------------------------|
A|------------------------------------------------------------------------------|
E|------------------------------------------------------------------------------|

        Let me show you just what I'm made of now
E|------------------------------------------------------------------------------|
B|------6------3-------------8----6---5----6--3---------------------------------|
G|------5------2-------------7----5---4----5--2---------------------------------|
D|------3------0-------------5----3---2----3--0---------------------------------|
A|------------------------------------------------------------------------------|
E|------------------------------------------------------------------------------|

Shortened Chorus (You play the intro for this bit)
Try to reach inside of me
Try to drain my energy
Let me show you just what I'm Made Of!

NOTES
I don’t know if the intro is right, can someone help? The solo is a simpler version of
solo submitted on this website for the same song, you can use the other solo if you find
easier. There are also a few flashy bits added in now and then (especially the second 
that I haven’t added because I don’t know them. Feel free to modify this tab, but if
make any improvements, please submit it so everyone can learn.

            
            
Suggest correction
Creating personal tab
Creating personal tab
You can edit any tab online and save it as your Personal.

You can edit, replace or remove any tab part or add personal notes – all changes will be seen only by you.

Personal tabs can be accessed anytime from any device, even offline.
Learn more »
Give kudos to tab author, rate the tab!
1 2 3 4 5
comments
print report bad tab
1 comment total.
0 reply
olij92 187 Aug 05, 2007 02:22 AM

the chords aren't right (sorry to say it)

its different , i have a powertab of the acutally whole song if u want it

guest
Wanna post a correction for this tab? Suggest correction