Oops, an error
Loading. Please wait.

Da Mi Je Do Nje chords

28 views 6 this week
no commentswrite comment
1 2 3 4 5
3 more votes to show rating
add to favorites
×
Save as Personal and add changes to this tab that will be seen only by you. Learn more ›
×
You can save this tab as Personal to edit and correct it or add notes. All changes will be seen only by you. Learn more »
launch autoscroll
font size
0
reset
transpose
0
reset
display chords
guitar tuner
edit
Autoscroll
slow
fast
+/-
esc
set tempo
stop
Strumming
There is no strumming pattern for this song yet. and get +5 IQ
The 10b is quite peculiar - slightest bend + ... something.
If I ever get the time and patience I'll tab out the solo too.

[Intro]
F#m E Bm C# F#m
e|-------------------------------|---------------12-------------9----|
B|---------9-10-9-12-10b---------|-------9-10-12----10b--------------|
G|------11-----------------------|----11-----------------------------|
D|---11--------------------------|--11-------------------------------|
A|-------------------------------|-----------------------------------|
E|-------------------------------|-----------------------------------|

e|----9--7--10---9---------------------------------------------------|
B|---10--9--12-----10------------------------------------------------|
G|--------------------9b11-------------------------------------------|
D|-------------------------------------------------------------------|
A|-------------------------------------------------------------------|
E|-------------------------------------------------------------------|

e|-------------------------------|---------------12-------------9----|
B|---------9-10-9-12-10b---------|-------9-10-12----10b--------------|
G|------11-----------------------|----11-----------------------------|
D|---11--------------------------|--11-------------------------------|
A|-------------------------------|-----------------------------------|
E|-------------------------------|-----------------------------------|

e|----9--7--10----13p9-13p9------------------------------------------|
B|---10--9--12--------------10---------------------------------------|
G|-----------------------------9b11----------------------------------|
D|-------------------------------------------------------------------|
A|-------------------------------------------------------------------|
E|-------------------------------------------------------------------|

[Verse]
F#m
Prosao sam ljudi kazu mnogo
                      E
Ma kakva pamet ludost cista
                  Bm 
Naucit toliko sam mog'o
       C#             F#m 
al tek sad ja ne znam nista
F#m
Probao sam rajsko voce
              E
I pune cepove para
               Bm
Al' malo ko da hoce
C#          F#m
Slusat tugu sanjara

[Chorus]
                A       E
Al' da mi je do nje, do nje
Bm                F#m
Jos dok je mila i snena
               A       E
Ja pamtim samo hej, od sveg
C#               F#m
Pogled sa njenih ramena
                A       E
Al' da mi je do nje, do nje
Bm                F#m
Jos dok je mila i snena
               A       E        Bm C#
Ja pamtim samo hej, od sveg
                     F#m
Pogled sa njenih ramena

[Interlude]
F#m E Bm C# F#m
e|-------------------------------|---------------12-------------9----|
B|---------9-10-9-12-10b---------|-------9-10-12----10b--------------|
G|------11-----------------------|----11-----------------------------|
D|---11--------------------------|--11-------------------------------|
A|-------------------------------|-----------------------------------|
E|-------------------------------|-----------------------------------|

e|----9--7--10---9---------------------------------------------------|
B|---10--9--12-----10------------------------------------------------|
G|--------------------9b11-------------------------------------------|
D|-------------------------------------------------------------------|
A|-------------------------------------------------------------------|
E|-------------------------------------------------------------------|

[Verse]
F#m
Putovao sam mnogo
                     E
Zvijezde, sunca dale put
                      Bm
Te sto dale su je drugom
     C#           F#m
I na njih bio sam ljut
F#m
Al' vidjeh je vidjeh sve
                      E
Ma kakva pamet ludost teska
                  Bm
Al' ne postoji nista
C#                F#m
Ljepse od njenog smjeska

[Chorus]
                A       E
Al' da mi je do nje, do nje
Bm                F#m
Jos dok je mila i snena
               A       E
Ja pamtim samo hej, od sveg
C#               F#m
Pogled sa njenih ramena
                A       E
Al' da mi je do nje, do nje
Bm                F#m
Jos dok je mila i snena
               A       E        Bm C#
Ja pamtim samo hej, od sveg
                     D
Pogled sa njenih ramena

[Solo]
D D D D
D D D C#

[Break]
F#m E Bm C# F#m

[Chorus]
                A       E
Al' da mi je do nje, do nje
Bm                F#m
Jos dok je mila i snena
               A       E
Ja pamtim samo hej, od sveg
C#               F#m
Pogled sa njenih ramena
                A       E
Al' da mi je do nje, do nje
Bm                F#m
Jos dok je mila i snena
               A       E        Bm C#
Ja pamtim samo hej, od sveg
                     F#m
Pogled sa njenih ramena

[Outro] (x2)
                     F#m   Bm C#
Pogled sa njenih ramena
Suggest correction
Creating personal tab
Creating personal tab
You can edit any tab online and save it as your Personal.

You can edit, replace or remove any tab part or add personal notes – all changes will be seen only by you.

Personal tabs can be accessed anytime from any device, even offline.
Learn more »
Give kudos to tab author, rate the tab!
1 2 3 4 5
comments
print report bad tab
guest
You may want to rate the tab now too:
select rating
Wanna post a correction for this tab? Suggest correction