Oops, an error
Loading. Please wait.

Highway Jones bass

version 1
version 1

Whole song

Interactive

532 views 3 this week
no commentswrite comment
1 2 3 4 5
3 more votes to show rating
add to favorites
×
Save as Personal and add changes to this tab that will be seen only by you. Learn more ›
×
You can save this tab as Personal to edit and correct it or add notes. All changes will be seen only by you. Learn more »
launch autoscroll
font size
0
reset
guitar tuner
edit
Autoscroll
slow
fast
+/-
esc
set tempo
stop
Author
Difficulty
-------------------------------------------------------------------------------
			     HIGHWAY JONES - Cry Of Love
-------------------------------------------------------------------------------

Tabbed By : Isaias Garcia (TexasFury)

Tuning: Standard


  m.15                                                                                      
  W                   W                   H        E  E  E  E     E  E  E  E  E  E  E  E    
-------------------|-------------------|-----------------------|---------------------------|
-------------------|-------------------|-----------------------|---------------------------|
-------------------|-------------------|-----------------------|-----------7--7--7--7--L\--|
-------------------|-------------------|-----------2--3--4--0--|--0--0--0------------------|
-------------------|-------------------|-----------------------|---------------------------|


  E  E  E  E  E  E  E  E     E  E  E  S S  E  E  S S E     E  E  E  E  E  E  E  E   
--------------------------|-----------------------------|--------6-----------------|
--------------------------|-----------------------------|--------------------------|
--4-----------------------|---------------11--7--9-7----|-----4-----4--------------|
-----0--2--3--4--0--3--2--|--L--0--0--9-7------------9--|--------------2--3--4--0--|
--------------------------|-----------------------------|--------------------------|


  E    E  H        E  E      E  E  E  E  E  E  E  E     E  E  E  S S  E  E  S  S S S  
--------------------------|--------------------------|-------------------------------|
--------------------------|--------------------------|-------------------------------|
-----3g7--L--------7--L\--|--4-----------------------|---------------11--7--9p-7-----|
--0-----------------------|-----0--2--3--4--0--3--2--|--L--0--L--9-7-------------9-9-|
--------------------------|--------------------------|-------------------------------|


                                                 Verse 1                       
  E  E  E  E  E  E  E  E     W                   E       E  E  E  E  E  E  E   
--------6-----------------|-------------------|-------------------------------|
--------------------------|-------------------|-------------------------------|
-----4-----4--------------|-------------------|--4----------------------------|
--------------2--3--4--0--|--L----------------|----------0--2--3--4--0--3--2--|
--------------------------|-------------------|-------------------------------|


  E  E  E  S S  E  E  S S E     E  E  E  E  E  E  E  E     E    E  H        E  E    
-----------------------------|--------6-----------------|--------------------------|
-----------------------------|--------------------------|--------------------------|
---------------11--7--9-7----|-----4-----4--------------|-----3g7--L--------7--L\--|
--L--0--L--9-7------------9--|--------------2--3--4--0--|--L-----------------------|
-----------------------------|--------------------------|--------------------------|


  E  E  E  E  E  E  E  E     E  E  E  S S  E  E  S S E     E  E  E  E  E  E  E  E   
--------------------------|-----------------------------|--------6-----------------|
--------------------------|-----------------------------|--------------------------|
--4-----------------------|---------------11--7--9-7----|-----4-----4--------------|
-----0--2--3--4--0--3--2--|--L--0--L--9-7------------9--|--------------2--3--4--0--|
--------------------------|-----------------------------|--------------------------|


  E    E  H        E  E      E  E  E  E  E  E  E  E     E  E  E  S S  E  E  S  S E   
--------------------------|--------------------------|------------------------------|
--------------------------|--------------------------|------------------------------|
-----3g7--L--------7--L\--|--4-----------------------|---------------11--7--9p-7----|
--L-----------------------|-----0--2--3--4--0--3--2--|--L--0--L--9-7-------------9--|
--------------------------|--------------------------|------------------------------|


  E  E  E  E  E  E  E  E     E  E  E  E     E  E   S S  E      E  E  E  E  E  E  E  E   
--------6-----------------|---------------------------------|--------------------------|
--------------------------|--------------------9--11-9------|--------------------------|
-----4-----4--------------|-----7--9--7--9g11----------11\--|--4-----------------------|
--------------2--3--4--0--|--L------------------------------|-----0--2--3--4--0--3--2--|
--------------------------|---------------------------------|--------------------------|


  E  E  E  S S  E  E  S  S E     E  E  E  E  E  E  E  E     H.           E  E   
------------------------------|--------6-----------------|---------------------|
------------------------------|--------------------------|---------------------|
---------------11--7--9p-7----|-----4-----4--------------|---------------------|
--L--0--L--9-7-------------9--|--------------2--3--4--0--|--L------------2--3--|
------------------------------|--------------------------|---------------------|


  E  E  E  E  E  S S E  E     E  E  E  E  E  S S E  E     E  E  E  E  E  S S E  E   
---------------------------|---------------------------|---------------------------|
---------------------------|---------------------------|---------------------------|
-----------4--L------------|-----------4--L------------|-----------4--L------------|
--4--0--L--------0-0-2--3--|--4--0--L--------0-0-2--3--|--4--0--L--------0-0-2--3--|
---------------------------|---------------------------|---------------------------|


  E  E  E  E  E  S S E  E     E  E  E  E  E  S S E  E     E  E  E  E  E  S S E  E   
---------------------------|---------------------------|---------------------------|
---------------------------|---------------------------|---------------------------|
---------------------------|-----------4--L------------|---------------------------|
--4--0--L--------0-0-2--3--|--4--0--L--------0-0-2--3--|--4--0--L--------0-0-2--3--|
-----------2--L------------|---------------------------|-----------2--L------------|


                                                      Chorus 1               
  E  E  E  E  E  E  E  E     E  E  E  E  Q    Q       Q.       E  Q    Q     
--------------------------|------------------------|------------------------|
--------------------------|------------------------|------------------------|
--------------------4--4--|--4-----4--4--4---------|--4--------4-------4----|
--4--0--L-----------------|------------------------|------------------------|
-----------2--L--2--------|-----2------------------|------------------------|


  E  E  Q    Q    E  E      Q.     E  Q    Q       E  E  Q    Q    Q       Q.     E  Q    Q     
-------------------------|----------------------|-----------------------|----------------------|
-------------------------|----------------------|-----------------------|----------------------|
--L--4-------4----4--2b--|--4------4-------4----|--L--4-------4----4----|--4------4-------4----|
-------------------------|----------------------|-----------------------|----------------------|
-------------------------|----------------------|-----------------------|----------------------|


  E  E  Q    Q    E  E      Q.     E  Q    Q       E  E  Q    Q    E.  S  
-------------------------|----------------------|------------------------|
-------------------------|----------------------|------------------------|
--L--4-------4----4--2b--|--4------4-------4----|--L--4-------4----4---2-|
-------------------------|----------------------|------------------------|
-------------------------|----------------------|------------------------|


  Guitar Solo                                                                                 
  E           E  E  E  E  E  E  E     E  E  E  S S  E  E  S  S E     E  E  E  E  E  E  E  E   
-----------------------------------|------------------------------|--------6-----------------|
-----------------------------------|------------------------------|--------------------------|
--4--------------------------------|-----------4-0-11--7--9p-7----|-----4-----4--------------|
--------------0--2--3--4--0--3--2--|--L--0--L------------------9--|--------------2--3--4--0--|
-----------------------------------|------------------------------|--------------------------|


  E    E  H        E  E      E  E  E  E  E  E  E  E     E  E  E  S S E  E  S  S E   
--------------------------|--------------------------|-----------------------------|
--------------------------|--------------------------|-----------------------------|
-----3g7--L--------7--L\--|--4-----------------------|---------------9--7--9p-7----|
--L-----------------------|-----0--2--3--4--0--3--2--|--L--0--L--9-7------------9--|
--------------------------|--------------------------|-----------------------------|


                                                 Verse 2                       
  E  E  E  E  E  E  E  E     W                   E       E  E  E  E  E  E  E   
--------6-----------------|-------------------|-------------------------------|
--------------------------|-------------------|-------------------------------|
-----4-----4--------------|-------------------|--4----------------------------|
--------------2--3--4--0--|--L----------------|----------0--2--3--4--0--3--2--|
--------------------------|-------------------|-------------------------------|


  E  E  E  S S E  E  S S E     E  E  E  E  E  E  E  E     E    E  H        E  E    
----------------------------|--------6-----------------|--------------------------|
----------------------------|--------------------------|--------------------------|
---------------9--7--9-7----|-----4-----4--------------|-----3g7--L--------7--L\--|
--L--0--L--9-7-----------9--|--------------2--3--4--0--|--L-----------------------|
----------------------------|--------------------------|--------------------------|


  E  E  E  E  E  E  E  E     E  E  E  S S E  E  S S E     E  E  E  E  E  E  E  E   
--------------------------|----------------------------|--------6-----------------|
--------------------------|----------------------------|--------------------------|
--4-----------------------|---------------9--7--9-7----|-----4-----4--------------|
-----0--2--3--4--0--3--2--|--L--0--L--9-7-----------9--|--------------2--3--4--0--|
--------------------------|----------------------------|--------------------------|


  E    E  H        E  E      E  E  E  E  E  E  E  E     E  E  E  S S E  E  S S E   
--------------------------|--------------------------|----------------------------|
--------------------------|--------------------------|----------------------------|
-----3g7--L--------7--L\--|--4-----------------------|---------------9--7--9-7----|
--L-----------------------|-----0--2--3--4--0--3--2--|--L--0--L--9-7-----------9--|
--------------------------|--------------------------|----------------------------|


  E  E  E  E  E  E  E  E     E    E  Q    S  S S  S S  S S  S     E  E  E  E  E  E  E  E   
--------6-----------------|------------------------------------|--------------------------|
--------------------------|------------------------------------|--------------------------|
-----4-----4--------------|-----3g7--L----9p-7-9p-7------------|--------------------------|
--------------2--3--4--0--|--L----------------------9p-7-9p-7\-|--9--0--2--3--4--0--3--2--|
--------------------------|------------------------------------|--------------------------|


  E  E  E  S S E  E  S S E     E  E  E  E  E  E  E  E     H.           E  E   
----------------------------|--------6-----------------|---------------------|
----------------------------|--------------------------|---------------------|
---------------9--7--9-7----|-----4-----4--------------|---------------------|
--L--0--L--9-7-----------9--|--------------2--3--4--0--|--L------------2--3--|
----------------------------|--------------------------|---------------------|


  E  E  E  E  E  S S E  E     E  E  E  E  E  S S E  E     E  E  E  E  E  S S E  E   
---------------------------|---------------------------|---------------------------|
---------------------------|---------------------------|---------------------------|
-----------4--L------------|---------------------------|-----------4--L------------|
--4--0--L--------0-0-2--3--|--4--0--L--------0-0-2--3--|--4--0--L--------0-0-2--3--|
---------------------------|-----------2--L------------|---------------------------|


  E  E  E  E  E  S S E  E     E  E  E  E  E  S S E  E     E  E  E  E  E  S S E  E   
---------------------------|---------------------------|---------------------------|
---------------------------|---------------------------|---------------------------|
---------------------------|---------------------------|-----------4--L------------|
--4--0--L--------x-0-2--3--|--4--0--L--------0-0-2--3--|--4--0--L--------0-0-2--3--|
-----------2--L------------|-----------2--L------------|---------------------------|


                                                      Chorus 2               
  E  E  E  E  E  E  E  E     E  E  E  E  Q    Q       Q.       E  Q    Q     
--------------------------|------------------------|------------------------|
--------------------------|------------------------|------------------------|
--------------------4--4--|--4-----4--4--4---------|--4--------4-------4----|
--4--0--0-----------------|------------------------|------------------------|
-----------2--L--2--------|-----2------------------|------------------------|


  E  E  Q    Q    E  E      Q.     E  Q    Q       E  E  Q    Q    Q       Q.     E  Q    Q     
-------------------------|----------------------|-----------------------|----------------------|
-------------------------|----------------------|-----------------------|----------------------|
--L--4-------4----4--2b--|--4------4-------4----|--L--4-------4----4----|--4------4-------4----|
-------------------------|----------------------|-----------------------|----------------------|
-------------------------|----------------------|-----------------------|----------------------|


  E  E  Q    Q    Q       Q.     E  Q    Q       E  E  Q    Q    E  E     E  E  E  E  E  S S E  E   
-----------------------|----------------------|------------------------|---------------------------|
-----------------------|----------------------|------------------------|---------------------------|
--L--4-------4----4----|--4------4-------4----|--L--4-------4----------|-----------4--L------------|
-----------------------|----------------------|------------------2--3--|--4--0--L--------0-0-2--3--|
-----------------------|----------------------|------------------------|---------------------------|


  E  E  E  E  E  S S E  E     E  E  E  E  E  S S E  E     E  E  E  E  E  S S E  E   
---------------------------|---------------------------|---------------------------|
---------------------------|---------------------------|---------------------------|
---------------------------|-----------4--L------------|---------------------------|
--4--0--L--------0-0-2--3--|--4--0--L--------0-0-2--3--|--4--0--L--------0-0-2--3--|
-----------2--L------------|---------------------------|-----------2--L------------|


  E  E  E  E  E  S S E  E     E  E  E  E  E  S S E  E     E  E  S  S S  S    E  E   Q      
---------------------------|---------------------------|----------------------------------|
---------------------------|---------------------------|------------------------9--11\----|
---------------------------|---------------------2--3--|--4--9--9p-7------9g11------------|
--4--0--L--------0-0-2--3--|--4--0--0--------x-x-------|-------------9p-7-----------------|
-----------2--L------------|-----------2--L------------|----------------------------------|


                                 Bridge                                                   
  E  E  S  S E  S  S E  E  E     Q      E      E   Q       Q        H.            E  E    
--4--4------------------------|---------------------------------|------------------------|
--------6s-4-2--4p-2----------|-------------------------9g11----|---L-------------L--9s--|
---------------------4--2--3--|--4------L/--9g11---L------------|------------------------|
------------------------------|---------------------------------|------------------------|
------------------------------|---------------------------------|------------------------|


   Q.      E  E   E    Q        H.            E  E      Q.      E  E   E   Q     
----------------------------|-----------------------|---------------------------|
--11------14-----14s--11----|---L-------------L--9--|--11------14-----14--11----|
----------------------------|-----------------------|---------------------------|
----------------------------|-----------------------|---------------------------|
----------------------------|-----------------------|---------------------------|


   H.            E  E      Q.      E  E   E   Q        W                    W                 
-----------------------|---------------------------|--------------------|--------------------|
---L-------------L--9--|--11------14-----14--11----|---L----------------|---L----------------|
-----------------------|---------------------------|--------------------|--------------------|
-----------------------|---------------------------|--------------------|--------------------|
-----------------------|---------------------------|--------------------|--------------------|


                       Chorus 3                                                              
   W                   Q.       E  Q    Q       E  E  Q    Q    Q       Q.     E  Q    Q     
--------------------|------------------------|-----------------------|----------------------|
---L----------------|------------------------|-----------------------|----------------------|
--------------------|--4--------4-------4----|--L--4-------4----4----|--4------4-------4----|
--------------------|------------------------|-----------------------|----------------------|
--------------------|------------------------|-----------------------|----------------------|


  E  E  Q    Q    E  E      Q.     E  Q    Q       E  E  Q    Q    E  E      Q.     E  Q    Q     
-------------------------|----------------------|-------------------------|----------------------|
-------------------------|----------------------|-------------------------|----------------------|
--L--4-------4----4--2b--|--4------4-------4----|--L--4-------4----4--2b--|--4------4-------4----|
-------------------------|----------------------|-------------------------|----------------------|
-------------------------|----------------------|-------------------------|----------------------|


  E  E  Q    Q    Q       Q.     E  Q    Q       E  E  Q    Q    E  E      Q.     E  Q    Q     
-----------------------|----------------------|-------------------------|----------------------|
-----------------------|----------------------|-------------------------|----------------------|
--L--4-------4----4----|--4------4-------4----|--L--4-------4----4--2b--|--4------4-------4----|
-----------------------|----------------------|-------------------------|----------------------|
-----------------------|----------------------|-------------------------|----------------------|


  E  E  Q    Q    Q       Q.     E  Q    Q       E  E  Q    Q    E  E      Q.     E  Q    Q     
-----------------------|----------------------|-------------------------|----------------------|
-----------------------|----------------------|-------------------------|----------------------|
--L--4-------4----4----|--4------4-------4----|--L--4-------4----4--2b--|--4------4-------4----|
-----------------------|----------------------|-------------------------|----------------------|
-----------------------|----------------------|-------------------------|----------------------|


                          Outro                                                    
  E  E  Q    Q    Q       E     E  E  E  E  E  E  E     E  E  E  S S E  E  S S E   
-----------------------|-----------------------------|----------------------------|
-----------------------|-----------------------------|----------------------------|
--L--4-------4----4----|--4--------------------------|---------------9--7--9-7----|
-----------------------|--------0--2--3--4--0--3--2--|--L--0--L--9-7-----------9--|
-----------------------|-----------------------------|----------------------------|


  E  E  E  E  E  E  E  E     E    E  H        E  E      E  E  E  E  E  E  E  E   
--------6-----------------|--------------------------|--------------------------|
--------------------------|--------------------------|--------------------------|
-----4-----4--------------|-----3g7--L--------7--L\--|--4-----------------------|
--------------2--3--4--0--|--L-----------------------|-----0--2--3--4--0--3--2--|
--------------------------|--------------------------|--------------------------|


  E  E  E  S S E  E  S S E     E  E  E  E  E  E  E  E     E    E  H        E  E   
----------------------------|--------6-----------------|-------------------------|
----------------------------|--------------------------|-------------------------|
---------------9--7--9-7----|-----4-----4--------------|-----3g7--L--------7--6--|
--L--0--L--9-7-----------9--|--------------2--3--4--0--|--L----------------------|
----------------------------|--------------------------|-------------------------|


  E  E  E  E  E  E  E  E     E  E  E  S S E  E  S S E     E  E  E  E  E  E  E  E   
--------------------------|----------------------------|--------6-----------------|
--------------------------|----------------------------|--------------------------|
--4-----------------------|---------------9--7--9-7----|-----4-----4--------------|
-----0--2--3--4--0--3--2--|--L--0--L--9-7-----------9--|--------------2--3--4--0--|
--------------------------|----------------------------|--------------------------|


  E    E  H        E  E      E  E  E  E  E  E  E  E     E  E  E  S S E  E  S S E   
--------------------------|--------------------------|----------------------------|
--------------------------|--------------------------|----------------------------|
-----3g7--L--------7--L\--|--4-----------------------|---------------9--7--9-7----|
--L-----------------------|-----0--2--3--4--0--3--2--|--L--0--L--9-7-----------9--|
--------------------------|--------------------------|----------------------------|


  E  E  E  E  E  E  E  E     E  S S E  E     E  E   S S  E      E  E  E  E  E  E  E  E   
--------6-----------------|----------------------------------|--------------------------|
--------------------------|---------------------9--11-9------|--------------------------|
-----4-----4--------------|-----7-7-9--7--9g11----------11\--|--4-----------------------|
--------------2--3--4--0--|--L-------------------------------|-----0--2--3--4--0--3--2--|
--------------------------|----------------------------------|--------------------------|


  E  E  E  S S E  E  S S E     E  E  E  E  E  E  E  E     E    E  H        E   E   
----------------------------|--------6-----------------|--------------------------|
----------------------------|--------------------------|--------------------------|
---------------9--7--9-7----|-----4-----4--------------|-----3g7--L--------7s--6--|
--L--0--L--9-7-----------9--|--------------2--3--4--0--|--L-----------------------|
----------------------------|--------------------------|--------------------------|


  E  E  E  E  E  E  E  E     E  E  E  S S E  E  S S E     E  E  E  E  E  E  E  E   
--------------------------|----------------------------|--------6-----------------|
--------------------------|----------------------------|--------------------------|
--4-----------------------|---------------9--7--9-7----|-----4-----4--------------|
-----0--2--3--4--0--3--2--|--L--0--L--9-7-----------9--|--------------2--3--4--0--|
--------------------------|----------------------------|--------------------------|


  E    E  H        E  E      E  E  E  E  E  E  E  E     E  E  E  S S E  E  S S E   
--------------------------|--------------------------|----------------------------|
--------------------------|--------------------------|----------------------------|
-----3g7--L--------7--L\--|--4-----------------------|---------------9--7--9-7----|
--L-----------------------|-----0--2--3--4--0--3--2--|--L--0--L--9-7-----------9--|
--------------------------|--------------------------|----------------------------|


  E  E  E  E  E  E  E  E     E    E  E  E  S  S S S S  S S  S    E  E  E  E  E  E  E  E   
--------6-----------------|-----------------------------------|--------------------------|
--------------------------|-----------------------------------|--------------------------|
-----4-----4--------------|-----3g7--L--7--9p-7---7-----------|--------------------------|
--------------2--3--4--0--|--L------------------9---9p-7-9p-7-|--9--0--2--3--4--0--3--2--|
--------------------------|-----------------------------------|--------------------------|


  E  E  E  S S E  E  S S E     E  E  E  E  E  E  E  E     E    E  H        E  E     
----------------------------|--------6-----------------|--------------------------||
----------------------------|--------------------------|--------------------------||
---------------9--7--9-7----|-----4-----4--------------|-----3g7--L--------7--L\--||
--L--0--L--9-7-----------9--|--------------2--3--4--0--|--L-----------------------||
----------------------------|--------------------------|--------------------------||




Duration Legend
---------------
W - whole
H - half
Q - quarter
E - 8th
S - 16th
T - 32nd
X - 64th
. - note dotted
|-n-|  - n-tuplets


Tablature Legend
----------------
L - tied note
x - dead note
g - grace note
(n) - ghost note
> - accentuded note
NH - natural harmonic
AH - artificial harmonic
TH - tapped harmonic
SH - semi harmonic
PH - pitch harmonic
h - hammer on
p - pull off
b - bend
br - bendRelease
pb - preBend
pbr - preBendRelease
brb - bendReleaseBend
\n/ - tremolo bar dip
\n - tremolo bar dive
-/n - tremolo bar Release up
/n\ - tremolo bar inverted dip
/n - tremolo bar return
-\n - tremolo bar Release down
S - shift slide
s - legato slide
/ -  slide into from below or out of upwards
\ -  slide into from above or out of downwards
~ - vibrato
W - wide vibrato
tr - trill
TP - tremolo picking
T - tapping
S - slap
P - pop
< - fade in
^ - brush up
v - brush down
Suggest correction
Creating personal tab
Creating personal tab
You can edit any tab online and save it as your Personal.

You can edit, replace or remove any tab part or add personal notes – all changes will be seen only by you.

Personal tabs can be accessed anytime from any device, even offline.
Learn more »
Give kudos to tab author, rate the tab!
1 2 3 4 5
comments
print report bad tab
guest
You may want to rate the tab now too:
select rating
Wanna post a correction for this tab? Suggest correction