Oops, an error
Loading. Please wait.

Flowers Upon Flowers chords

94 views 1 this week
no commentswrite comment
1 2 3 4 5
2 more votes to show rating
add to favorites
×
Save as Personal and add changes to this tab that will be seen only by you. Learn more ›
×
You can save this tab as Personal to edit and correct it or add notes. All changes will be seen only by you. Learn more »
launch autoscroll
font size
0
reset
transpose
0
reset
simplify chords
display chords
guitar tuner
edit
Autoscroll
slow
fast
+/-
esc
set tempo
stop
Strumming
There is no strumming pattern for this song yet. and get +5 IQ
Capo on 7th fret.

[Intro]

   C   F   C       G       C       C   F   C       G       C
e|-0---1---0-----0---------0---0---0---1---0-----0---------0---0---|
B|---1---1---1-1---3---0-3-1---------1---1-----1---3---0-3-1-------|
G|-------------------0-------0---0-----------0-------0-------0---0-|
D|-----3-------------------------------3---------------------------|
A|-----------------------------------------------------------------|
E|-----------------------------------------------------------------|

   C   F   C       G       C       C   F   C       G       C
e|-0---1---0-----0---------0---0---0---1---0-----0---------0---0---|
B|---1---1-----1---3---0-3-1---------1---1-----1---3---0-3-1-------|
G|-----------0-------0-------0---0-----------0-------0-------0---0-|
D|-----3-------------------------------3---------------------------|
A|-----------------------------------------------------------------|
E|-----------------------------------------------------------------|

   C
e|-0---0---0---0---0---0-------------------------------------------|
B|-1-------1-------1-----------------------------------------------|
G|---0---0---0---0---0---0-----------------------------------------|
D|-----------------------------------------------------------------|
A|-----------------------------------------------------------------|
E|-----------------------------------------------------------------|


[Verse 1]

           C            F      C       G       G
There's a big bowl of flowers over my head
 F          C         G         G
Why it is there has never been said
     F             C        G               Am       Am
It might give us light and it might be for gains
         C                 F             G           C       C       C       C
And it might be something that is yet to be given a name 


           C            F              C              G        G
There's a dark cloud beneath us, they call it Baltic Sea
     F                C        G               G
And why it's gotten like this is like greek to me
 F       C     G   G/G#  Am     Am
echis panemor famathia eno*
      C                   F          G                 C       C       C       C
Your eyes are the most beautiful as far as this world goes


     C               F             C               G          G 
And if they were to tell me that this day'd be my last
     F                 C             G             G    
At first I might get angry, but I'd settle fairly fast
    F              C         G         G/G#      Am       Am     
And go to you my darling to spend that day with you
  C               F                G                 C       C 
Hoping that the words they said to me were all but true


[Solo]

(same as intro)
C F C   G   C 
C F C   G   C  
C   C   C


[Verse 2]

     C               F            C            G       G  
The stars may stay above us and oceans stay below
    F                  C                G               G     
I swear that in your eyes I can catch glimpses of them both
     F            C          G     G/G#     Am       Am
As deep as the pacific and sparkly all day long
      C               F              G            C       C       C       C
May stars and oceans stay with me wherever I may roam


[Chorus]

          C             F      C               G         G
And this big bowl of flowers now make sense to me
        F           C          G                   G
What you made is a symbol of what this world could be
       F               C               G        G/G#      Am       Am
If we all just took a break from everything we think we know
           C            F            G                 C
We'll see flowers upon flowers and perhaps we too will grow
           C            F            G                 C
We'll see flowers upon flowers and perhaps we too will grow 


[Outro]

(same as intro)
C   F   C       G       C

*The Greek lyrics are totally made up just to have something to set the chords to. 
 Apologies to Greece.

Tab by mumrikn
Most of the lyrics from http://www.letssingit.com/crying-day-care-choir-lyrics-flowers-upon-flowers-81b2tdv
Suggest correction
Creating personal tab
Creating personal tab
You can edit any tab online and save it as your Personal.

You can edit, replace or remove any tab part or add personal notes – all changes will be seen only by you.

Personal tabs can be accessed anytime from any device, even offline.
Learn more »
Give kudos to tab author, rate the tab!
1 2 3 4 5
comments
print report bad tab
guest
You may want to rate the tab now too:
select rating
Wanna post a correction for this tab? Suggest correction