Oops, an error
Loading. Please wait.

Clockwork tab

40 views 3 this week
no commentswrite comment
1 2 3 4 5
3 more votes to show rating
add to favorites
×
Save as Personal and add changes to this tab that will be seen only by you. Learn more ›
×
You can save this tab as Personal to edit and correct it or add notes. All changes will be seen only by you. Learn more »
launch autoscroll
font size
0
reset
how to read this tab
guitar tuner
edit
Autoscroll
slow
fast
+/-
esc
set tempo
stop
[Intro]

0:00

C |--------------------------------------------------------------------------------------|
G |--------------------------------------------------------------------------------------|
D#|--------------------------------------------------------------------------------------|
A#|-15-0-14-0-15\12-0-14-0-17\12-0-15-0-14h-15/19-0-14-0-15-0-0-14-0-10-0-0-9h-10-9h-10/-|
F |--------------------------------------------------------------------------------------|
A#|--------------------------------------------------------------------------------------|


[Chorus Riff]

0:13

C |-13-0-12-0-13\10-0-12-0-15\10-0-13-0-12h-13/17-0-12-0-13-0-0-12-0-10-0-0-7h-8-7h-8/--|
G |-------------------------------------------------------------------------------------|
D#|-------------------------------------------------------------------------------------|
A#|-------------------------------------------------------------------------------------|
F |-------------------------------------------------------------------------------------|
A#|-------------------------------------------------------------------------------------|

C |-13-0-12-0-13\10-0-12-0-15\10-0-13-0-12h-13/17-0-12-0-13-0-0-12-0-10-0-0-12-0-12-13-12-|
G |---------------------------------------------------------------------------------------|
D#|---------------------------------------------------------------------------------------|
A#|---------------------------------------------------------------------------------------|
F|----------------------------------------------------------------------------------------|
A#|---------------------------------------------------------------------------------------|


[Verse]

0:27

C |--------------------------------------------------------------------------------------|
G |--------------------------------------------------------------------------------------|
D#|--------------------------------------------------------------------------------------|
A#|-------------------------------------------------------------7-7-7-7-8-8-8-8-7-7-7-7--|
F |-----------------------------------------------------8-8-8-8--------------------------|
A#|-x x-0-x-0-3/12-0--0-0-0-0-0-0-0-0-0-0-0-0-/8-5-3-5-----------------------------------|


C |---------------------------------|
G |---------------------------------|
D#|---------------------------------|
A#|---------5-5-5-5-3-3-3-3-5-5-5-5-|    x2
F |-3-3-3-3-------------------------|
A#|---------------------------------| 


[Breakdown]

0:40

C |--------------------------------------------------------------------|
G |--------------------------------------------------------------------|
D#|--------------------------------------------------------------------|
A#|--------------------------------------------------------------------|
F |--------------------------------------------------------------------|
A#|-x-x-0-x-0-/12-12-12~----x-0-x-0-/13-13-13-12~---x-0-x-0-/12-12-12~-|

C |--------------------|
G |--------------------|
D#|--------------------|
A#|--------------------|
F |------------------3-|
A#|-x-x-0-x-0-1-3-4----|

C |--------------------------------------------------------------------|
G |--------------------------------------------------------------------|
D#|--------------------------------------------------------------------|
A#|--------------------------------------------------------------------|
F |--------------------------------------------------------------------|
A#|-x-x-0-x-0-/12-12-12~----x-0-x-0-/13-13-13-12~---x-0-x-0-/12-12-12~-|

C |-------------------------------------|
G |-------------------------------------|
D#|-------------------------------10-9--|
A#|--------------------7h10p7h10--------|
F |-----------5h8p5p8-------------------|
A#|-x--x-x------------------------------|


[Chorus]

0:56 - 1:10

C |-13-0-12-0-13\10-0-12-0-15\10-0-13-0-12h-13/17-0-12-0-13-0-0-12-0-10-0-0-7h-8-7h-8/--|
G |-------------------------------------------------------------------------------------|
D#|-------------------------------------------------------------------------------------|
A#|-------------------------------------------------------------------------------------|
F |-------------------------------------------------------------------------------------|
A#|-------------------------------------------------------------------------------------|

C |-13-0-12-0-13\10-0-12-0-15\10-0-13-0-12h-13/17-0-12-0-13-0-0-12-0-10-0-0-12-0-12-13-12-|
G |---------------------------------------------------------------------------------------|
D#|---------------------------------------------------------------------------------------|
A#|---------------------------------------------------------------------------------------|
F|----------------------------------------------------------------------------------------|
A#|---------------------------------------------------------------------------------------|


[Solo]

1:10

C |------------------------------------------------------|
G |------------------------------------------------------|
D#|-------------------------------5~--------5-7-7b-5-----|
A#|---------------------------6-7----7--5-7----------7---|
F |--------/8\--5p3hp5~--3-5-----------------------------|
A#|--12\\------------------------------------------------|

C |--------------------------------------------------------------------------------------10------|
G |----------------------------12b----------------------13-------------------13----10-13----13b--|
D#|-------10-12-12b---10-12-10 12b-10------------10-12b----12~-10h12p10--12b----12~--------------|
A#|--7/12-----------------------------12-10-12---------------------------------------------------|
F |----------------------------------------------------------------------------------------------|
A#|----------------------------------------------------------------------------------------------|


[Drum Solo]

1:23

C |-------------------------------------------------------------------------------------------------|
G |-------------------------------------------------------------------------------------------------|
D#|-------------------------------------------------------------------------------------------------|
A#|-------------------------------------------------------------------------------------------------|
F |-------------------------------------------------------------------------------------------------|
A#|-0-0-0-0-0-0-0-0-0-0-0-0-0-5-5-5-3-3-3-3-3-3-3-3-3-3-3-3-3-8-8-8-5-5-5-5-5-5-5-5-5-5-5-5-5-8-8-8-|

C |-----------------------------------------------------------|
G |-----------------------------------------------------------|
D# |-----------------------------------------------------10-9--|
A#|-------------------------------------------7h10p7h10-------|
F |----------------------------------5h8p5p8------------------|
A#|-7-7-7-7-7-7-7-7-7-7-7-7-7-7-7-7---------------------------|


[Breakdown 2]

1:37

C |-------------------------------------------------------------------------------------------------------|
G |-------------------------------------------------------------------------------------------------------|
D#|-------------------------------------------------------------------------------------------------------|
A#|---------------------------------------------12--------------------------------------------12----------|
F |---------------------------------12h13pb12h13---11~\---------------------------12h13pb12h13---12/16~\--|
A#|-0-0-0-0-0-0-0-0-0---12h13pb12h13--------------0---------0000000---12h13pb12h13--------------0---------|


C |-------------------------------------------------------------------------------------------------|
G |-------------------------------------------------------------------------------------------------|
D#|-------------------------------------------------------------------------------------------------|
A#|---------------------------------------------12--------------------------------------------------|
F |---------------------------------12h13pb12h13---11P----------------------------5h8p5h8-7--5P-----|
A#|-0-0-0-0-0-0-0-0-0---12h13pb12h13--------------0---------0-0-0-0-0-0-0--5h8p5h8---------0--------|

C |---------------------------------------------------------------------------------------------------------|
G |---------------------------------------------------------------------------------------------------------|
D#|---------------------------------------------------------------------------------------------------------|
A#|---------------------------------------------------------------------------------------------------------|
F |---------------------------------------------------------------------------------------------------------|
A#|-0-0-0-0-0-0-0-0-0----------0-0-0-0-0-0-0-0----------0-0-0-0-0-0-0-0----------0-0-0-0-0-0-0-0------------|


[Chorus]

C |-13-0-12-0-13\10-0-12-0-15\10-0-13-0-12h-13/17-0-12-0-13-0-0-12-0-10-0-0-7h-8-7h-8/--|
G |-------------------------------------------------------------------------------------|
D#|-------------------------------------------------------------------------------------|
A#|-------------------------------------------------------------------------------------|
F |-------------------------------------------------------------------------------------|
A#|-------------------------------------------------------------------------------------|

C |-13-0-12-0-13\10-0-12-0-15\10-0-13-0-12h-13/17-0-12-0-13-0-0-12-0-10-0-0-12-0-12-13-12-|
G |---------------------------------------------------------------------------------------|
D#|---------------------------------------------------------------------------------------|
A#|---------------------------------------------------------------------------------------|
F|----------------------------------------------------------------------------------------|
A#|---------------------------------------------------------------------------------------|

Solo Chorus line


[Chorus]

C |-13-0-12-0-13\10-0-12-0-15\10-0-13-0-12h-13/17-0-12-0-13-0-0-12-0-10-0-0-7h-8-7h-8/--|
G |-------------------------------------------------------------------------------------|
D#|-------------------------------------------------------------------------------------|
A#|-------------------------------------------------------------------------------------|
F |-------------------------------------------------------------------------------------|
A#|-------------------------------------------------------------------------------------|

C |-13-0-12-0-13\10-0-12-0-15\10-0-13-0-12h-13/17-0-12-0-13-0-0-12-0-10-0-0-12-0-12-13-12-|
G |---------------------------------------------------------------------------------------|
D#|---------------------------------------------------------------------------------------|
A#|---------------------------------------------------------------------------------------|
F|----------------------------------------------------------------------------------------|
A#|---------------------------------------------------------------------------------------|


[Outro]

C |-----------------|
G |-----------------|
D#|--2--------------|
A#|-----------------|
F |-----------------|
A#|------0---0---0--|



************************************

| x   Dead note
| h   Hammer-on
| p   Pull-off
| b   Bend
| pb  Pre-bend
| /   Slide up
| \   Slide down
| ~   Vibrato

************************************

            
            
Suggest correction
Creating personal tab
Creating personal tab
You can edit any tab online and save it as your Personal.

You can edit, replace or remove any tab part or add personal notes – all changes will be seen only by you.

Personal tabs can be accessed anytime from any device, even offline.
Learn more »
Give kudos to tab author, rate the tab!
1 2 3 4 5
comments
print report bad tab
guest
You may want to rate the tab now too:
select rating
Wanna post a correction for this tab? Suggest correction