Oops, an error
Loading. Please wait.

Bye Bye Babylon Tab

version 2
version 2

Whole song

Interactive

735 views 3 this week
no commentswrite comment
1 2 3 4 5
please rate
add to favorites
launch autoscroll
font size
0
reset
how to read this tab
guitar tuner
Autoscroll
slow
fast
+/-
esc
set tempo
stop
Help us to improve Ultimate-Guitar.com Take our survey!
×
Author
Difficulty
novice
Intro

E------------------------------|
A------------------------------|
D------------------------------|
G------------------------------|
B----3~-3-4-7/8---4~-5-7/8-4/3-|
E------------------------------|

Repeat x5

E------------------------------|
A------------------------------|
D------------------------------|
G------------------------------|
B------7--7-7-----5--5-5-------|
E----5--------3----------------|

E------------------------------|
A------------------------------|
D------------------------------|
G------------------------------|
B----3~-3-4-7/8---4~-5-7/8-4/3-|
E------------------------------|

E------------------------------|
A------------------------------|
D------------------------------|
G------------------------------|
B------7--7-7-----5--5-5-------|
E----5--------3----------------|

Verse

E--------4-4-4-2--4--4--5-4--2-2-2--4-2--0--0-0--2-0|
A----2-2--------------------------------------------|
D---------------------------------------------------|
G---------------------------------------------------|
B---------------------------------------------------|
E---------------------------------------------------|

Repeat x6

Chorus

E---------------------------------------------------------|
A---------------------------------------------------------|
D---------------------------------------------------------|
G---------------------------------------------------------|
B----3~-3-4-7/8---4~-5-7/8-4/3----7--7-7-----5--5-5-------|
E-------------------------------5--------3----------------|

Repeat x6

Second Verse

The second verse is more soothing than the first, so try not to play the exact same as verse 1.

E--------4--4-2---4--4--4-2--4--4--4-2--|
A----2-2--------------------------|
D---------------------------------|
G---------------------------------|
B---------------------------------|
E---------------------------------|

E----4--4--5-4--2--2--4-2--0--0--2-0----------------|
A---------------------------------------------------|
D---------------------------------------------------|
G---------------------------------------------------|
B---------------------------------------------------|
E---------------------------------------------------|

Repeat x3

Just before the solo, it returns to normal

E--------4-4-4-2--4--4--5-4--2-2-2--4-2--0--0-0--2-0|
A----2-2--------------------------------------------|
D---------------------------------------------------|
G---------------------------------------------------|
B---------------------------------------------------|
E---------------------------------------------------|

E--------4-4-4-2--------|
A----2-2----------------|
D-----------------------|
G-----------------------|
B-----------------------|
E-----------------------|

Solo

E----9~---4-4--5-4-5-4----9/5/4-8/5/4--------|
A--------------------------------------------|
D--------------------------------------------|
G--------------------------------------------|
B--------------------------------------------|
E--------------------------------------------|

The rest is too hard but I'll keep trying and post it.

Chorus


E---------------------------------------------------------|
A---------------------------------------------------------|
D---------------------------------------------------------|
G---------------------------------------------------------|
B----3~-3-4-7/8---4~-5-7/8-4/3----7--7-7-----5--5-5-------|
E-------------------------------5--------3----------------|

Repeat x5

The rest is just playing a lot of notes at random times, but here's the very last part

E------------------|
A------------------|
D------------------|
G------------------|
B----7-8-6-5-4-7-5-|
E------------------|

END :)
Suggest correction
Give kudos to tab author, rate the tab!
1 2 3 4 5
comments
print report bad tab
guest
You may want to rate the tab now too:
select rating
Please do not post tabs as comments. Select "correction" instead!