Oops, an error
Loading. Please wait.

Come To My Heaven Tab

220 views 1 this week
no commentswrite comment
1 2 3 4 5
please rate
add to favorites
launch autoscroll
font size
0
reset
how to read this tab
guitar tuner
Tab Pro tools
  • play this tab
  • loop segment
  • change instrument
  • show fretboard
  • metronome
×
Best way to learn
"Come To My Heaven"
Autoscroll
slow
fast
+/-
esc
set tempo
stop
Contributor
Difficulty
Tuning
novice
B F# B E G# C#
Artist: Cryoshell
Song: Come To My Heaven
Tuning: Drop B  (B, F#, B, E, G#, Db)
Tabbed By: shredforever

Another tab for Cryoshell wooo! I plan to do the whole album eventually
since there aren't many other tabs for them. This song could be played in
Drop C tuning and that might be what the band uses, but many of their
other songs are in Drop B also so that is the tuning I used to tab it.
Plus I felt it's easier to play this way. If you'd prefer to play it in 
Drop C just push everything down 1 fret, for example play a 5 as a 4.
Enjoy :)

Verse
Lead Guitar:
e|----------------------------------------------------------------|
B|----------------------------------------------------------------|
G|----------------------------------------------------------------|
D|----------5--5-----------8-8-8-----------5--5-----------8-8-8---|
A|----------------------------------------------------------------|
E|--5-5-8-5------5-5-5-8-5-------5-5-5-8-5------5-5-5-8-5---------|

e|------------------------------------------------------------------|
B|------------------------------------------------------------------|
G|------------------------------------------------------------------|
D|------------5--5-----------8-8-8-----------5--5-------------------|
A|----------------------------------------------------------6-5-----|
E|--5-5-5-8-5------5-5-5-8-5-------5-5-5-8-5------5-5-5-8-5-----8---|

e|--------------------------------------------------------------------------------|
B|--------------------------------------------------------------------------------|
G|--------------------------------------------------------------------------------|
D|------------5--5-----------8-8-8-----------------------3---3--------------------|
A|---------------------------------5-6-6-5---6-5-------------------------3---5b---|
E|--5-5-5-8-5------5-5-5-8-5---------------8-----8-3-3-3---3---3-3-4---4---4------|
                                   . . .
Chorus
Lead Guitar:
e|--------------------------------------------------------------|                -|
B|--------------------------------------------------------------|                 |
G|--------------------------------------------------------------|                 |
D|--5---5-5---5---5---x-5-5-x-x-10---10-10---10---8-x-7-7-x-x---|                 |
A|--5---5-5---5---5---x-5-5-x-x-10---10-10---10---8-x-7-7-x-x---|                 |
E|--5---5-5---5---5---x-5-5-x-x-10---10-10---10---8-x-7-7-x-x---|                 |
                                                                                  | x2
e|-------------------------------------------------|---------|----------------|   |
B|-------------------------------------------------|---------|----------------|   |
G|------------------------------8---8-8---8---10-x-|--10-10--|--10-10-10-10---|   |
D|--5---5-5---5---5---x-5-5-x-x-8---8-8---8---10-x-|--10-10--|--10-10-10-10---|   |
A|--5---5-5---5---5---x-5-5-x-x-6---6-6---6----8-x-|---8--8--|---8--8--8--8---|   |
E|--5---5-5---5---5---x-5-5-x-x--------------------|---------|----------------|  -|
                                              1st ending  2nd ending
Rhythm Guitar:
e|----------------------------------------------------------------------------|  -|
B|----------------------------------------------------------------------------|   |
G|----------------------------------------------------------------------------|   |
D|--5-5-5-5-5-5-5-5-5-5-5-5-5-5-5-5-10-10-10-10-10-10-10-10-8-8-8-8-7-7-7-7---|   |
A|--5-5-5-5-5-5-5-5-5-5-5-5-5-5-5-5-10-10-10-10-10-10-10-10-8-8-8-8-7-7-7-7---|   |
E|--5-5-5-5-5-5-5-5-5-5-5-5-5-5-5-5-10-10-10-10-10-10-10-10-8-8-8-8-7-7-7-7---|   |
    . . . . . . . . . . . . . . . .  .  .  .  .  .  .  .  . . . . . . . . .       | x2
e|----------------------------------------------------------------------------|   |
B|----------------------------------------------------------------------------|   |
G|----------------------------------8-8-8-8-8-8-8-8-10-10-10-10-10-10-10-10---|   |
D|--5-5-5-5-5-5-5-5-5-5-5-5-5-5-5-5-8-8-8-8-8-8-8-8-10-10-10-10-10-10-10-10---|   |
A|--5-5-5-5-5-5-5-5-5-5-5-5-5-5-5-5-6-6-6-6-6-6-6-6--8--8--8--8--8--8--8--8---|   |
E|--5-5-5-5-5-5-5-5-5-5-5-5-5-5-5-5-------------------------------------------|  -|
    . . . . . . . . . . . . . . . . . . . . . . . .  .  .  .  .  .  .  .  .

Verse 2
Lead Guitar:
e|---------------------------|
B|---------------------------|
G|-----7--8--5--7--3--2--3---| x3
D|--5------------------------|
A|---------------------------|
E|---------------------------|

e|-----------------------------|
B|-----------------------------|
G|-----7--8--5--7--8--5--7-7---|
D|--5--------------------------|
A|-----------------------------|
E|-----------------------------|

Rhythm Guitar:
e|----------------------------------|
B|----------------------------------|
G|----------------------------------| x5
D|--5-5---5-5---5---5-5---5-5-5-5---|
A|--5-5---5-5---5---5-5---5-5-5-5---|
E|--5-5---5-5---5---5-5---5-5-5-5---|

e|----------------------------------|
B|----------------------------------|
G|----------------------------------|
D|--1-1---1-1---1---3-3---3-3-3-3---|
A|--1-1---1-1---1---3-3---3-3-3-3---|
E|--1-1---1-1---1---3-3---3-3-3-3---|

Verse 2 cont.
Lead Guitar:
e|-----------------------------------------------------------------|
B|-----------------------------------------------------------------|
G|-----------------------------------------------------------------|
D|-----------5--5-----------8-8-8-----------5--5-----------8-8-8---|
A|-----------------------------------------------------------------|
E|--5-5-5-8-5------5-5-5-8-5-------5-5-5-8-5------5-5-5-8-5--------|

Rhythm Guitar: 
e|----------------------------------|
B|----------------------------------|
G|----------------------------------| x2
D|--5-5---5-5---5---5-5---5-5-5-5---|
A|--5-5---5-5---5---5-5---5-5-5-5---|
E|--5-5---5-5---5---5-5---5-5-5-5---|

Verse 2 cont.(again)
Lead Guitar:
e|---------------------------|
B|---------------------------|
G|-----7--8--5--7--3--2--3---| x3
D|--5------------------------|
A|---------------------------|
E|---------------------------|

e|-----------------------------|
B|-----------------------------|
G|-----7--8--5--7--8--5--7-7---|
D|--5--------------------------|
A|-----------------------------|
E|-----------------------------|

Rhythm Guitar:
e|----------------------------------|
B|----------------------------------|
G|----------------------------------|
D|--5-5---5-5---5---5-5---5-5-5-5---|
A|--5-5---5-5---5---5-5---5-5-5-5---|
E|--5-5---5-5---5---5-5---5-5-5-5---|

e|----------------------------------|
B|----------------------------------|
G|----------------------------------|
D|--1-1---1-1---1---3-3---3-3-3-3---|
A|--1-1---1-1---1---3-3---3-3-3-3---|
E|--1-1---1-1---1---3-3---3-3-3-3---|

Chorus

Bridge - Part 1
Lead Guitar:
e|--------------------------------------------------------------|                
B|--------------------------------------------------------------|                 
G|--------------------------------------------------------------|                 
D|--5---5-5---5---5---x-5-5-x-x-10---10-10---10---8-x-7-7-x-x---|                 
A|--5---5-5---5---5---x-5-5-x-x-10---10-10---10---8-x-7-7-x-x---|                 
E|--5---5-5---5---5---x-5-5-x-x-10---10-10---10---8-x-7-7-x-x---|              
                                                                                  
e|-------------------------------------------------|-------------|
B|---------------------------------------------------------------|
G|------------------------------8---8-8---8---10-x-10-10-10-10---|
D|--5---5-5---5---5---x-5-5-x-x-8---8-8---8---10-x-10-10-10-10---|
A|--5---5-5---5---5---x-5-5-x-x-6---6-6---6----8-x--8--8--8--8---|
E|--5---5-5---5---5---x-5-5-x-x----------------------------------|

Bridge - Part 2
Lead Guitar:
e|----------------------------------------------------|
B|----------------------------------------------------|
G|--3-7-6---7---8---5---8---7-----3-7-6---7---8-------|
D|----------------------------------------------------|
A|----------------------------------------------------|
E|----------------------------------------------------|

The rhythm guitar also plays a part during this section of the bridge
but i still need to figure it out. If I do i will add it in later.

Chorus - play twice

Legend
x - lightly touching strings with finger while playing note
. - palm mute
b - bend
comments
We did not receive enough feedback on this tab! Please rate:
print report bad tab
1 2 3 4 5
I want to post or [tab]
guest
You may want to rate the tab now too:
select rating
Please do not post tabs as comments. Select "correction" instead!