Oops, an error
Loading. Please wait.

Creeping In My Soul Tab

version 3
version 3

Whole song

Interactive

317 views 1 this week
no commentswrite comment
1 2 3 4 5
please rate
add to favorites
launch autoscroll
font size
0
reset
how to read this tab
guitar tuner
Autoscroll
slow
fast
+/-
esc
set tempo
stop
Help us to improve Ultimate-Guitar.com Take our survey!
×
Author
Difficulty
Tuning
novice
C G C F A D
 
Verse1
d|----------------------------------------------------------|
a|----------------------------------------------------------|
f|----------------------------------------------------------|
c|----------------------------------------------------------|
g|--------------------4----------7-----------4-----------7--|
c|--------------------4----------7-----------4-----------7--|

Chorus
d|-----------------------------------------------------------------------------|
a|-----------------------------------------------------------------------------|
f|-----------------------------------------------------------------------------|
c|-----------------------------------------------------------------------------|
g|---------4—(8x)------7-(8x)-------2-(8x)------9-(8x)-------------------------|
c|---------4-----------7------------2-----------9------------------------------|

d|-----------------------------------------------------------------------------|
a|-----------------------------------------------------------------------------|
f|-----------------------------------------------------------------------------|
c|-----------------------------------------------------------------------------|
g|---------4—(8x)------7-(8x)-------2-(8x)------0-(8x)-------------------------|
c|---------4-----------7------------2-----------0------------------------------|

Verse2
d|--------------------------------------------------------------------------------------------|
a|-------------------------------------------------(palm muted)-------------------------------|
f|--------------------------------------------------------------------------------------------|
c|-------11-11-12-12-9-9-11-11-7-7-9-9-6-6----(3x)----11-11-12-12-9-9-11-11-12-12-11-11-12-12-|
g|--9-9-------------------------------------------9-9-----------------------------------------|
c|--------------------------------------------------------------------------------------------|

d|-------------------------------------------------------------------------------|
a|-------------------------------------------------------------------------------|
f|-------------------------------------------------------------------------------|
c|-----------------------------------------------------------------(palm muted)--|
g|----4---4-4---(4x)----///-12-------4---4-4---(4x)-------12-12-12-12-12---------|
c|----4---4-4-----------///-12-------4---4-4--------------12-12-12-12-12---------|
 
d|--------------------------------------------------------------------------|
a|--------------------------------------------------------------------------|
f|--------------------------------------------------------------------------|
c|--------------------------------------------------------------------------|
g|----4------7---------4-4--4-4--4-4--4-5--4-4--5---(2x)---------4-------6--|
c|----4------7---------4-4--4-4--4-4--4-5--4-4--5----------------4-------6--|

Chorus





Bridge
d|-----------------------------------------------|
a|-----------------------------------------------|
f|-----------------------------------------------|
c|-----------------------------------------------|
g|-----(4)--(4)--(4)--------(listen for rhythm)--|
c|-----(4)--(4)--(4)-----------------------------|

Chorus (without first chords)

Chorus

END
Suggest correction
What's this?
You can suggest a correction to this tab. Community and Mods will review your correction and vote to approve or reject it.
comments
We did not receive enough feedback on this tab! Please rate:
print report bad tab
1 2 3 4 5
guest
You may want to rate the tab now too:
select rating
Please do not post tabs as comments. Select "correction" instead!