Oops, an error
Loading. Please wait.

Face Me Bass Tab

300 views 1 this week
no commentswrite comment
1 2 3 4 5
2 more votes to show rating
add to favorites
launch autoscroll
font size
0
reset
guitar tuner
Autoscroll
slow
fast
+/-
esc
set tempo
stop
Help us to improve Ultimate-Guitar.com Take our survey!
×
Author
Difficulty
novice
----FACE ME---- || ----Cryoshell123----

Standard tuning - EADG

INTRO/VERSE

G------------------------------------------|
D-----5---------2-5---4-5------------------|
A---0---7-/-2-3-----5----------------------|   X 10
E------------------------------------------|

faace mee....
G------------------------------------------|
D------------00000-33333-------11111-------|
A------------------------11111-------------|   x 3
E------------------------------------------|

G------------------------------------------|
D-----5---------2-5---4-5------------------|
A---0---7-/-2-3-----5----------------------|   x 4
E------------------------------------------|

G------------------------------------------|
D------------------------------------------|
A--00000-33333--------11111----------------|   x 4
E--------------111111----------------------|

BRIDGE - pause

FAAACE MEE....
G------------------------------------------|
D------------------------------------------|
A--00000-333333----------------------------|
E------------------------------------------|

G------------------------------------------|
D------------------------------------------|
A--00000-33333--------11111----------------|   x 8
E--------------111111----------------------|

OUTRO

G------------------------------------------|
D------------------------------------------|
A--11111--11111----------------------------|
E------------------------------------------|


Please tell me if I made any mistakes and feel free to request any songs from Crysohell, 
though it might take a while! :)
Suggest correction
Give kudos to tab author, rate the tab!
1 2 3 4 5
comments
print report bad tab
guest
You may want to rate the tab now too:
select rating
Wanna post a correction for this tab? Suggest correction