Oops, an error
Loading. Please wait.

Gravity Hurts Tab

version 2
version 2

Whole song

Interactive

1,780 views 3 this week
1 commentread comment
1 2 3 4 5
excellent!
x 6
add to favorites
launch autoscroll
font size
0
reset
how to read this tab
guitar tuner
Tab Pro tools
  • play this tab
  • loop segment
  • change instrument
  • show fretboard
  • metronome
×
Best way to learn
"Gravity Hurts"
Autoscroll
slow
fast
+/-
esc
set tempo
stop
Contributor
Difficulty
Tuning
intermediate
D A D G B E
Artist: Cryoshell
Song: Gravity Hurts
Tuning: drop D 
Tabbed By: shredforever

Intro
Guitar 1:
e|------0---------0---------0-----------------|
B|----0---0-----0---0-----0---0-------0-------|
G|----------0-------------------0---2---2-----| x3
D|--2---------7-------7-5---------3-------3---|
A|--------------------------------------------|
E|--------------------------------------------|

Guitar 2:
e|-------------------------------------------------|
B|--5s12---12-----5s12-----12s8-----8s10----10s5---|
G|-------------------------------------------------|
D|-------------------------------------------------|
A|-------------------------------------------------|
D|-------------------------------------------------|

Verse
Guitar 1:
e|------0---------0---------0-----------------|
B|----0---0-----0---0-----0---0-------0-------|
G|----------0-------------------0---2---2-----| x5
D|--2---------7-------7-5---------3-------3---|
A|--------------------------------------------|
E|--------------------------------------------|

Guitar 2: -- comes in toward end of verse
e|--------------------------------------------|
B|--------------------------------------------|
G|--------------------------------------------| x2 
D|--2-2---7-7---5-5---3-3---3---3-3---3---3---|
A|--2-2---7-7---5-5---3-3---3---3-3---3---3---|
D|--2-2---7-7---5-5---3-3---3---3-3---3---3---|
    . .   . .   . .   . .   .   . .   .   .

Chorus
Guitar 1:
e|------------------------------------------------------------------|
B|------------------------------------------------------------------|
G|-------------2----------------7--------------7----------------2---| x3
D|--2-2--2--2--2---5-5--5--5-5--7---0-0--0--0--7---7-7--7--7-7--2---|
A|--2-2--2--2--0---5-5--5--5-5--5---0-0--0--0--5---7-7--7--7-7--0---|
D|--2-2--2--2------5-5--5--5-5------0-0--0--0------7-7--7--7-7------|
    . .  .  .      . .  .  . .      . .  .  .      . .  .  . . 

Riff 1
Guitar 1:
e|----------------------------------------------------|
B|--------------3-----------------------5-------------|
G|----------5-------5---------------7-------7---------|
D|------5-------------5---5-----7-------------7---7---|
A|--3-3---3---3---3-----5---5-5---5---5---5-----7-----|
E|----------------------------------------------------|
    . . . . . . . . . . . . . . . . . . . . . . . .

Riff 2
Guitar 1:
e|------------------------------------------------|
B|------------------------------------------------|
G|------------------------------------------------|
D|------------------2---------------3-2-0-2-2-0---|
A|------------2-3-5---3-5-------------------------|
E|--2-2--2--2-------------2-2--2--2---------------|
    . .  .  .             . .  .  .

Repeat Riff 1

Verse 2
Guitar 1: 
e|------0-----0-----0-----0-----0-----0---------------|
B|----0-----0-----0-----0-----0-----0-----0-------0---|
G|--------------5-----5-----2-----2-----0---0---0-----|
D|--2-----2-----------------------------------3-------|
A|----------------------------------------------------|
E|----------------------------------------------------|

e|------0-----0-----0-----0-----0-----0-----0-----0---|
B|----0-----0-----0-----0-----0-----0-----0-----0-----|
G|--------------5-----5-----4-----4-----2-----2-------| x6
D|--2-----2-------------------------------------------|
A|----------------------------------------------------|
E|----------------------------------------------------|

Guitar 2: -- comes in after first set of notes from guitar 1
e|--------------------------------------------|
B|--------------------------------------------|
G|--------------------------------------------| x6
D|--2-2---7-7---5-5---3-3---3---3-3---3---3---|
A|--2-2---7-7---5-5---3-3---3---3-3---3---3---|
D|--2-2---7-7---5-5---3-3---3---3-3---3---3---|
    . .   . .   . .   . .   .   . .   .   .

Chorus
Riff 1

Bridge
Guitar 1:
e|------------------------------------------|
B|------------------------------------------|
G|------------------------------------------|
D|--2-2--2---2-2--2---2-2--2---2--3--0--3---|
A|--2-2--2---2-2--2---2-2--2---2--3--0--3---|
E|--2-2--2---2-2--2---2-2--2----------------|
    . .  .   . .  .   . .  . 

e|---------------------------------------------------------------------|
B|---------------------------------------------------------------------|
G|---------------------------------------------------------------------|
D|--2-2--2---2-2--2---2-2--2-------------------------------------------|
A|--2-2--2---2-2--2---2-2--2---2-2-2-3-3-3-0-0-0-2-2-2-3-3-3-5-5-5-6---|
E|--2-2--2---2-2--2---2-2--2-------------------------------------------|
    . .  .   . .  .   . .  .   . . . . . . . . . . . . . . . . . .

Chorus x2

Legend
s - slide to next note
. - palm mute
comments
print report bad tab
1 comment total.
0 reply
Verosia wrote on February 22 2014, 12:06 pm

The song is actually just in standard tuning. The chorus uses these chords:

e|--0---x---x---x--|
b|--0---3---3---2--|
g|--x---0---2---2--|
d|--2---0---0---2--|
a|--2---x-------0--|
e|--0---3----------|
E G D A

I want to post or [tab]
guest
You may want to rate the tab now too:
select rating
Please do not post tabs as comments. Select "correction" instead!