Oops, an error
Loading. Please wait.

Gravity Hurts Tab

version 3
version 3

Whole song

Interactive

1,508 views 6 this week
no commentswrite comment
1 2 3 4 5
excellent!
x 3
add to favorites
launch autoscroll
font size
0
reset
how to read this tab
guitar tuner
Autoscroll
slow
fast
+/-
esc
set tempo
stop
Help us to improve Ultimate-Guitar.com Take our survey!
×
Author
-------------------------------------------------------------------------------
                             Gravity Hurts - Cryoshell Feat. Niels Brinck
-------------------------------------------------------------------------------
Tabbed by: Coked up Coyote
E-mail:ferarrirocks31@yahoo.com

Tuning:EADGBe

Legend:
.-palm mute
^-let note ring

Intro (clean)- E-Am-G-F   X3

E          Am      G       F
Tension is Rising  Gravity Hurts
E           Am      G     F
Everythin's Fallin' Apart
E        Am             G            F
Choosin' The right side Choosin' our Faith


At "Choosin' is what me must do" you palm mute the the chords like this:
Guitar (Heavy Distortion)
e|---------------------------------------------------------------------------|
B|------------1-1------------------------------------------------------------|
G|1-1---------2-2------------------------------------------------------------|
D|2-2---------2-2-------5-5--------3-3-3-33-3--------------------------------|
A|2-2-------------------5-5--------3-3-3-33-3--------------------------------|
E|0-0-------------------3-3--------1-1-1-11-1--------------------------------|
  . .         . .       . .        . . . .. .
  Choosin' is What we must do
e|---------------------------------------------------------------------------|
B|------------1-1------------------------------------------------------------|
G|1-1---------2-2------------------------------------------------------------|
D|2-2---------2-2-------5-5--------3-3-3-33-3--------------------------------|
A|2-2-------------------5-5--------3-3-3-33-3--------------------------------|
E|0-0-------------------3-3--------1-1-1-11-1--------------------------------|
  . .         . .       . .        . . . .. .
  Everyone's  counting on you


(Chorus- Heavy Distortion) X3
e|----------------------------------22-2-22----------------------------------|
B|----------------------------------33-3-33----------22-2-22-----------------|
G|11-1-11--1-1-1-1------------------22-2-22----------22-2-22-----------------|
D|22-2-22--2-2-2-2--55-5-55--------------------------22-2-22-----------------|
A|22-2-22--2-2-2-2--55-5-55--------------------------------------------------|
E|00-0-00--0-0-0-0--33-3-33--------------------------------------------------|
  .. . .^  . . . .  .. . .^         .. . .^          .. . .^

(Break- Heavy Distortion)
e|---------------------------------------------------------------------------|
B|-----------3-------------------5-------------------------------------------|
G|-------5-------5-----------7-------7---------------------------------------|
D|---5-------------------7---------------------------------------------------|
A|-3---3---3---3---33--5---5---5---5---55------------------------------------|
E|---------------------------------------------------------------------------|
   . . . . . . . . ..  . . . . . . . . ..
e|---------------------------------------------------------22-2-22-----------|
B|----------------------------------------11-1-11----------33-3-33-----------|
G|----------------------------------------00-0-00----------22-2-22-----------|
D|------------3-----------3-2-0-----------22-2-22----------------------------|
A|------2-3-5---2-3-------------3-2-2-----33-3-33----------------------------|
E|0-0-0-------------0-0-0----------------------------------------------------|
  . . . . . . . . . . . . . . . . . .     .. . .^          .. . .^
                                           We      Fly             Gravity Hurts

Guitar 1 (Clean) Repeat This riff throughout verse 2
e|-----0----0-----0----0-----0----0------0----0------------------------------|
B|---0----0-----0----0-----0----0------0----0--------------------------------|
G|------------5----5-----2----2------0---------------------------------------|
D|2----2----------------------------------4----------------------------------|
A|---------------------------------------------------------------------------|
E|---------------------------------------------------------------------------|
    E           Am          G           F
Verse 2 (Heavy Distortion
e|---------------------------------------------------------------------------|
B|------------1-1------------------------------------------------------------|
G|1-1---------2-2------------------------------------------------------------|
D|2-2---------2-2-------5-5--------3-3-3-33-3--------------------------------|
A|2-2-------------------5-5--------3-3-3-33-3--------------------------------|
E|0-0-------------------3-3--------1-1-1-11-1--------------------------------|
  . .         . .       . .        . . . .. .
 Creatures  keep coming  reachin' within
e|---------------------------------------------------------------------------|
B|------------1-1------------------------------------------------------------|
G|1-1---------2-2------------------------------------------------------------|
D|2-2---------2-2-------5-5--------3-3-3-33-3--------------------------------|
A|2-2-------------------5-5--------3-3-3-33-3--------------------------------|
E|0-0-------------------3-3--------1-1-1-11-1--------------------------------|
  . .         . .       . .        . . . .. .
 Stealthy they climb from the dark  yeah, yeah
e|---------------------------------------------------------------------------|
B|------------1-1------------------------------------------------------------|
G|1-1---------2-2------------------------------------------------------------|
D|2-2---------2-2-------5-5--------3-3-3-33-3--------------------------------|
A|2-2-------------------5-5--------3-3-3-33-3--------------------------------|
E|0-0-------------------3-3--------1-1-1-11-1--------------------------------|
  . .         . .       . .        . . . .. .
 searchin   for wisdom  searchin for truth
e|---------------------------------------------------------------------------|
B|------------1-1------------------------------------------------------------|
G|1-1---------2-2------------------------------------------------------------|
D|2-2---------2-2-------5-5--------3-3-3-33-3--------------------------------|
A|2-2-------------------5-5--------3-3-3-33-3--------------------------------|
E|0-0-------------------3-3--------1-1-1-11-1--------------------------------|
  . .         . .       . .        . . . .. .
 show us   the things  you can do
e|---------------------------------------------------------------------------|
B|------------1-1------------------------------------------------------------|
G|1-1---------2-2------------------------------------------------------------|
D|2-2---------2-2-------5-5--------3-3-3-33-3--------------------------------|
A|2-2-------------------5-5--------3-3-3-33-3--------------------------------|
E|0-0-------------------3-3--------1-1-1-11-1--------------------------------|
  . .         . .       . .        . . . .. .
 Maybe its  all   up     to     you!!   Yeah!


(Chorus- Heavy Distortion) X3
e|----------------------------------22-2-22----------------------------------|
B|----------------------------------33-3-33----------22-2-22-----------------|
G|11-1-11--1-1-1-1------------------22-2-22----------22-2-22-----------------|
D|22-2-22--2-2-2-2--55-5-55--------------------------22-2-22-----------------|
A|22-2-22--2-2-2-2--55-5-55--------------------------------------------------|
E|00-0-00--0-0-0-0--33-3-33--------------------------------------------------|
  .. . .^  . . . .  .. . .^         .. . .^          .. . .^

e|---------------------------------------------------------------------------|
B|-----------3-------------------5-------------------------------------------|
G|-------5-------5-----------7-------7---------------------------------------|
D|---5-------------------7---------------------------------------------------|
A|-3---3---3---3---33--5---5---5---5---55------------------------------------|
E|---------------------------------------------------------------------------|
   . . . . . . . . ..  . . . . . . . . ..

Break (2) Heavy Distortion

e|---------------------------------------------------------------------------|
B|---------------------------------------------------------------------------|
G|---------------------------------------------------------------------------|
D|22-2---22-2---22-2---22-3--0--3----22-2---22-2---22-2----------------------|
A|22-2---22-2---22-2---22-3--0--3----22-2---22-2---22-2----------------------|
E-00-0---00-0---00-0---00------------00-0---00-0---00-0----------------------|
  .. .   .. .   .. .   ..            .. .   .. .   .. .

e|---------------------------------------------------------------------------|
B|---------------------------------------------------------------------------|
G|---------------------------------------------------------------------------|
D|4-4-4--2-2-2--4-4-4--5-5-5--7-7-7--8---------------------------------------|
A|2-2-2--0-0-0--2-2-2--3-3-3--5-5-5--6---------------------------------------|
E|---------------------------------------------------------------------------|
  . . .  . . .  . . .  . . .  . . .  ^

(Chorus- Heavy Distortion) X8
e|----------------------------------22-2-22----------------------------------|
B|----------------------------------33-3-33----------22-2-22-----------------|
G|11-1-11--1-1-1-1------------------22-2-22----------22-2-22-----------------|
D|22-2-22--2-2-2-2--55-5-55--------------------------22-2-22-----------------|
A|22-2-22--2-2-2-2--55-5-55--------------------------------------------------|
E|00-0-00--0-0-0-0--33-3-33--------------------------------------------------|
  .. . .^  . . . .  .. . .^         .. . .^          .. . .^


My first tab so be gentle. Hope you enjoy, and just listent ot he song for the timing.
Suggest correction
Give kudos to tab author, rate the tab!
1 2 3 4 5
comments
print report bad tab
guest
You may want to rate the tab now too:
select rating
Wanna post a correction for this tab? Suggest correction