Oops, an error
Loading. Please wait.

Amar Sathe Aae tab

961 views 3 this week
1 commentread comment
1 2 3 4 5
2 more votes to show rating
add to favorites
×
Save as Personal and add changes to this tab that will be seen only by you. Learn more ›
×
You can save this tab as Personal to edit and correct it or add notes. All changes will be seen only by you. Learn more »
launch autoscroll
font size
0
reset
how to read this tab
guitar tuner
edit
Autoscroll
slow
fast
+/-
esc
set tempo
stop
Author
Hi all... this is the TAB for Amaar Shaathe Aae by Cryptic Fate(album -- Sreshtho).
tabbed by:sodaLime
Verse:

Fig. 1a
..C. . . . D . . . .Em . . . G . . . .
e|--0-----|--0-----|--0-----|--0-----|
B|--------|--------|--------|--------|
G|----0---|----0---|----0---|----0---|
D|--------|--------|--------|--------|
A|3-----3/|5-----5/|7-----7/|)-----)\|
E|--------|--------|--------|--------|

Fig. 1b
..C. . . . D . . . .Em . . . G . . . .
e|--0-----|--0-----|--0-----|--0-----|
B|--------|--------|--------|--------|
G|----0---|----0---|----0---|----0---|
D|--------|--------|--------|--------|
A|3-----3/|5-----5\|2-----2/|5-----5\|
E|--------|--------|--------|--------|

play fig. 1(a and then b over each line) over the first three lines of the verse --

prothom je deen toke dekhi amaar mon bhore geche
sharaakkhon ichche kore tor shaathe thaakte
dhaaronaa chilo nijeke niye shaara taa jeebon besto robo

then play fig. 1a for this --

Fig. 1a
..C. . . . D . . . .Em . . . G . . . .
e|--0-----|--0-----|--0-----|--0-----|
B|--------|--------|--------|--------|
G|----0---|----0---|----0---|----0---|
D|--------|--------|--------|--------|
A|3-----3/|5-----5/|7-----7/|)-----)\|
E|--------|--------|--------|--------|
dhaaronaa chilo amaar moner meel

after that play Fig. 2 --

Fig. 2
..C . . . .D. . . .
e|--0-----|--0-----|
B|--------|--------|
G|----0---|----0---|
D|--------|--------|
A|3-----3/|5-----5\|
E|--------|--------|
kokhono khuje naa

then play fig. 3 four times --

Fig. 3
..G . . . . . . . .
e|----3---|--3-----|
B|------3-|----3---|
G|--------|--------|
D|--------|--------|
A|--------|--------|
E|3-------|3-----3-|
paabo

==================================================
==================================================

Pre-Chorus:

play fig. 4 four times as interlude --

Fig. 4
..G . . . . . . . .
e|3--5-53-|-3-33-3-|
B|3--3-33-|-3-33-3-|
G|0--0-00-|-0-00-0-|
D|0--0-00-|-0-00-0-|
A|2--2-22-|-2-22-2-|
E|3--3-33-|-3-33-3-|

Use the rhythm figure as shown in fig. 4 four and play the following chords over the 
--

G---G-------------Em7---------Cadd9--
toke jokhon khuje pelaam aami
G--------G-----------Em7---------Cadd9--
shey deen theke mone shobi rongin

G 320033
Em7 022033
Cadd9 032033

then with the same rhythm play --

----C-------------------Em----------C------------Em--
tor bhetor jaa ichche aache amai taa pushiye nebo
----C------------------Em----------------C-----------Em--
tor mukhe haashi dhore raakhte shob cheshtaa aami korbo

(tui shudhu)

==================================================
==================================================

chorus:

fig. 1a - 1b - 1a - 2 - 3 - 3 - 3 - 3

==================================================
==================================================

Disclaimer:
* This is the author's own work and intended for study purpose only.
* The creator and owner of the song has NOT been contacted and taken permission of.
* Any false or misleading information is entirely accidental and/or co-incidental.
* The author takes NO responsiblity to defend any criticism(s) from or on behalf of the 
of the song. However, any comment(s) or criticism(s) from the forum is always welcome.

==================================================
==================================================

Guys (and gals),

If anybody wants any other song TABbed, I'll be more than happy to contribute.

Questions? Comments? Critisism? Or are you a pretty girl?
Just send me a mail at shwachchhaw@hotmail.com

            
            
Suggest correction
Creating personal tab
Creating personal tab
You can edit any tab online and save it as your Personal.

You can edit, replace or remove any tab part or add personal notes – all changes will be seen only by you.

Personal tabs can be accessed anytime from any device, even offline.
Learn more »
Give kudos to tab author, rate the tab!
1 2 3 4 5
comments
print report bad tab
1 comment total.
0 reply
arnob_oblique 41 Feb 14, 2008 08:55 AM

the starting is not ryt actually..

it is played lyk this..

e-------------------------------------------
B---5----------7--------8---------12--------
G-----0----------0--------0----------0------
D-------0----------0--------0----------0----
A-3----------5--------7---------10----------
E-------------------------------------------

e-------------------------------------------
B---5----------7---------3----------5--------
G-----0----------0---------0----------0------
D-------0----------0---------0----------0----
A-3----------5---------2---------3----------
E-------------------------------------------

guest
You may want to rate the tab now too:
select rating
Wanna post a correction for this tab? Suggest correction