Oops, an error
Loading. Please wait.

Abigor Tab

version 2
version 2

Whole song

Interactive

210 views 1 this week
no commentswrite comment
1 2 3 4 5
please rate
add to favorites
launch autoscroll
font size
0
reset
how to read this tab
guitar tuner
Autoscroll
slow
fast
+/-
esc
set tempo
stop
Help us to improve Ultimate-Guitar.com Take our survey!
×
Author
ABIGOR – Cryptopsy – Blasphemy Made Flesh 
Tuning (Low - High): B E A D F# B

Segue in from Defenestration

A1                            Play 2 times
|----------------------------------|
|---------99998888-----------------|
|-7777------------7777—---6666-----|
|-----7777------------5555----4444-|
  pm...............................

A2                              Play 2 times
|----------------------------------|
|---------77776666-----------------|
|-5555------------5555—---4444-----|
|-----5555------------3333----2222-|
  pm...............................

Repeat A1 x 2, A2 x 2, A1 x 2, A2

Fill 1 
|--------------------------------------|
|---------77776666-7---------6---------|
|-5555-------------5----5----4----4----|
|-----5555--------------3---------2----|
  pm...............pmh.................

B1                            Play 4 times
|----------------------------------|
|----------------------------------|
|---------11111111—---221h2p1------|
|-00003333--------3333--------3333-|
  pm....................      pm...
 
B2  
|----------------------------------|
|---------3-----------4------------|
|-2---5---1-------5---2-1h2p1-5----|
|-0---3-----------3-----------3----|
  pm......        pm..........


Repeat B1 x 2, A1 x 2, A2 x 2, A1 x 2, A2 x 2

C1     (1,2,3)             (4)
|------------------|------------------|
|------------------|------------------|
|-77777777----8888-|-77777777---------|
|---------7777-----|---------77777777-|

C2     (1,2,3)             (4)
|------------------|------------------|
|------------------|------------------|
|-55555555----6666-|-5555555566666666-|
|---------5555-----|------------------|

C3      (1,2,3)               (4)
|--------------------|------------------|
|-9------------10-10-|-9----------------|
|-7--------8-8-8--8--|-7--------9-9-9-9-|
|----------7-7-------|----------7-7-7-7-|
           pm........           pm......

 
C4      (1,2,3)               (4)
|------------------|------------------|
|-7------------8-8-|-7--------8-8-8-8-|
|-5--------7-7-6-6-|-5--------6-6-6-6-|
|----------5-5-----|------------------|
           pm......           pm......

Repeat C3 & C4

Second Time w/Harmony Fade In:     (slight feedback)
|----------16~-----|-(16~)------------|
|------------------|------------------|
|------------------|------------------|
|------------------|------------------|

C5   (1,2,3)               (4)          w/Guitar 1 playing C3
|-9----9----10--|-12-10-9-10-9-7-9-7-|
|----9----9-----|--------------------|
|---------------|--------------------|
|---------------|--------------------|
     pm   pm      pm.................

C6   (1,2,3)               (4)          w/Guitar 1 playing C4
|-7----7----8--|-11-10-8-10-8-7-8-10-|
|----7----7----|---------------------|
|--------------|---------------------|
|--------------|---------------------|
     pm   pm     pm..................

Repeat C5 w/C3

C6’  (1,2,3)      last bar echo repeats (fade out)
|-7----7----8--|---11-10-8\7|----------|----------|----------|----------|
|----7----7----|-7----------|-.-.-.----|----------|----------|----------|
|--------------|------------|----------|----------|----------|----------|
|--------------|------------|----------|----------|----------|----------|
|    pm   pm     pm                                                                     |
| Guitar 1 (Fill)                                                                               |
|--------------|------------|----------|----------|----------|----------|
|-7--------8-8-|------------|----------|----------|----------|----------|
|-5----7-7-6-6-|-5----------|-5--------|-5--------|-5--------|-5--------|
|------5-5-----|-3----------|-3--------|-3--------|-3--------|-3--------|
|      pm......  pmh          pmh        pmh        pmh        pmh      |
| Bass                                                                                  |
|--------------|------------|----------|----------|----------|----------|
|--------------|------------|----------|----------|----------|----------|
|-5--------6-6-|------------|----------|----------|----------|----------|
|------5-5-----|-3----------|-3--------|-3---0----|-3--2--0--|-3--2--0--|

Fill Cont’d
|----------|----------|-------------------|
|----------|----------|-------------5-----|
|----------|-5--------|-5---2-5-------5---|
|----------|-3--------|-3-3-----6-3-----6-|
|            pmh        pm                      |
|Bass                                                   |
|----------|----------|-------------------|
|----------|----------|-------------5-----|
|-3--------|----------|-----2-5-------5---|
|----------|-3--2--0--|-3-3-----6-3-----6-|


D                                            Play 7 times
|-------------------------------------------------------|
|---------------4-\3---5--------------------------5-----|
|-4------3------2-\1---3------4------5------5-------5---|
|-2-0000-1-0000------0---0000-2-0000-3-0000---6-3-----6-|
    pm...  pm...     pm  pm...  pm...  pm...
 
Repeat A1 x 2, A2 x 2, A1 x 2, A2 x 2
Repeat C3 w/C5  &   C4 w/C6

E1 (guitar 2)   Play 4 times     w/Guitar 1 playing C3
|-16----------------------|
|----17-16-17-16----16----|
|----------------17----17-|
|-------------------------|

E2 (guitar 2)  Play 4 times      w/Guitar 1 playing C4
|-14----------------------|
|----15-14-15-14----14----|
|----------------15----15-|
|-------------------------|

Repeat C3 w/E1   &    C4 w/E2
Repeat (C3 + C4) x 2  (under solo)

Guitar solo: (1 – 6)                  (7 & 8)
|-------------------------|-------------19p16-------------|
|-19-19-19-19-16h19-16h19-|-19-19-19-19-------16h19-16h19-|
|-------------------------|-------------------------------|
|-------------------------|-------------------------------|
|-------------------------|-------------------------------|
|-------------------------|-------------------------------|

                                  (1 – 4)
|-------------------------------------17p14-------------17p14-------------|
|-17-17-17-17-14h17-14h17-17-17-17-17-------14h17-14h17-------14h17-14h17-|
|-------------------------------------------------------------------------|
|-------------------------------------------------------------------------|
|-------------------------------------------------------------------------|
|-------------------------------------------------------------------------|

End of Solo   (with whammy dives in background)
|----____full bend____~~~~~------------------------------|
|-16’----------------------------------------------------|
|--------------------------------------------------------|
|--------------------------------------------------------|
|--------------------------------------------------------|
|--------------------------------------------------------|

F                                                                  Play 4 times
|----------------------------------|----------------------------------|
|----------------------------------|----------------------------------|
|---------22221111-----------------|---------22221111-----------------|
|-22223333--------1111111111111111-|-22223333--------1111111100000000-|
  pm..................................................................

Outro
|----------------------------------|--------------------------------------|
|----------------------------------|--------------------------------------|
|---------22221111-----------------|---------22221111-4-----3------2------|
|-22223333--------1111111111111111-|-22223333---------2-----1------0------|
  pm..................................................pmh.................

The End.
Suggest correction
What's this?
You can suggest a correction to this tab. Community and Mods will review your correction and vote to approve or reject it.
comments
We did not receive enough feedback on this tab! Please rate:
print report bad tab
1 2 3 4 5
guest
You may want to rate the tab now too:
select rating
Please do not post tabs as comments. Select "correction" instead!