Oops, an error
Loading. Please wait.

Back To The Worms Bass Tab

version 1
version 1

Whole song

Interactive

915 views 1 this week
no commentswrite comment
1 2 3 4 5
x 3
add to favorites
launch autoscroll
font size
0
reset
guitar tuner
Autoscroll
slow
fast
+/-
esc
set tempo
stop
Help us to improve Ultimate-Guitar.com Take our survey!
×
Difficulty
advanced
Rhythm Guitar Transcribed on Bass
Tuning (Low - High): B E D A
Cryptopsy Back To The Worms 

(Drums)           Fill 1
|-----------------|-----------------|
|-----------------|-----------------|
|-----------------|-6---5---4---3---|
|-----------------|-4---3---2---1---|
                    pmh.............

A1
|---------------------------------------|
|---------------------------------------|
|--------------3----------------3---3---|
|-000000000000-1---000000000000-1---1---|
               pmh              pmh.....


A2
|-----------------------------------------------|
|-----------------------------------------------|
|--------------3----------------6---5---4---3---|
|-000000000000-1---000000000000-4---3---2---1---|
               pmh              pmh.............


Repeat (A1 + A2)


B      (1, 3)              (2)              (4)      Play 4 Times
|-----------------|-----------------|-----------------|
|-----4---3---6---|-----4---3-------|-----------------|
|-2---2---1---4---|-2---2---1---4---|-2---5---3---6---|
|-0---------------|-0-----------2---|-0---3---1---4---|


       Pause + 2 Drum Snares
|-----|------------------|
|-----|------------------|
|-2---|------------------|
|-0---|------------------|


C (v. slow)                    Play 3 Times
|-4-------5-------5-/-6---5---------------|
|-2-------3-------3--(3)--5---------------|
|-2-------3-------3--(3)--3---------------|
|-2-------3-------3--(3)-(3)--------------|


D                      Play 6 Times
|---------------------------------|
|-------------------------4-4-4-4-|
|-3-2-3-2-3-2-3-2---------2-2-2-2-|
|-1-0-1-0-1-0-1-0-33333333--------|
  pm..............................


Repeat Fill 1
Repeat A x 2
Repeat B x 2

Fill 2   (1, 3)              (2)                 (4)
|-------------------|-------------------|-------------------|
|-------4---3---6---|-------4---3-------|-------------------|
|-2-----2---1---4---|-2-----2---1---4---|-2-----------------|
|-0-000-------------|-0-000---------2---|-0-000-3---1---4---|
| pm....              pm....              pm....            |
|  backing guitar								|
|-------------------|-------------------|-------------------|
|-------------------|-------------------|-------------------|
|-------------------|-------------------|-------------------|
|-------------------|-------------------|-------3---1---4---|

B'      (1, 3)               (2)                 (4)      Play 4 Times
|-------------------|-------------------|-------------------|
|-------4---3---6---|-------4---3-------|-------------------|
|-2-----2---1---4---|-2-----2---1---4---|-2-----5---3---6---|
|-0-000-------------|-0-000---------2---|-0-000-3---1---4---|
  pm....              pm....              pm....

E1
|---------------------------------------------------------|
|-3---------------6---------------------------------------|
|-3---------------6--------------222222222222222222222222-|
|-1--000000000000-4--333333333333-------------------------|
     pm...........   pm...................................

E2
|---------------------------------------------------------|
|-3---------------6---------------------------------------|
|-3---------------6--------------333333333333333333333333-|
|-1--000000000000-4--333333333333-------------------------|
     pm...........   pm...................................

Repeat E1 + E2

|---------------------------------------------------------|
|-3---------------6---------------------------------------|
|-3---------------6--------------222222222222222222222222-|
|-1--000000000000-4--333333333333-------------------------|
|    pm...........   pm...................................|
| backing guitar						          |
|---------------------------------------------------------|
|-3--2------3--2--6---------------------------------------|
|-3--2------3--2--6--------------222222222222222222222222-|
|-1--0------1--0--4---------------------------------------|
                                 pm.......................

Both guitars
|---------------------------------------------------------|
|-3---------------6---------------------------------------|
|-3---------------6--------------333333333333333333333333-|
|-1--000000000000-4--333333333333-------------------------|
     pm...........   pm...................................

Repeat (E1 + E2) x ? (continue under guitar solo)
Repeat B' x 4,  Fill 1,  and  A x 2

Outro
|-----------------------------------------------|
|-----------------------------------------------|
|-6---5---4---3-----2-----2-----2-----3---------|
|-4---3---2---1---000---000---000---111---------|


ANGRY BEAVER BASS TABS
Suggest correction
Give kudos to tab author, rate the tab!
1 2 3 4 5
comments
print report bad tab
guest
You may want to rate the tab now too:
select rating
Wanna post a correction for this tab? Suggest correction